PrimaNota.ru - самый крупный в мире бесплатный архив песенных текстов, аккордов, табулатур и нот


The Hellecasters - King Arthurs Dream - таба, видео

Регистрация Запомнить меня
Войти через:  Facebook Google Twitter Vk Yandex Mail.ru

The Hellecasters - King Arthurs Dream - таба, видео

Печатать
Просмотров: 76
                              King Arthur's Dream                               


                                                                The Hellecasters
Jerry Donahue



     >                                      ^                                 
     S S S  S S S  S S S  S S S  S S S S    S S S  S S S  S S S S S S S S E   
E||--------------------------------------|-----------------------------------|
B||-----------0-------------0------------|-----------0----------0---0--------|
G||------3s-4---4s-3---3s-4---4s-3-------|------3s-4---4s-3---3---6---3------|
D||----6-------------6-------------6---6-|----6-------------6-----------6----|
A||--6-------------------------------6---|--4-----------------------------4--|
E||--------------------------------------|-----------------------------------|


                                      >                         
  S S S S  S S S S  S S S S E   E     S S S S S S S S H         
---------------0-------------------|----------0----------------|
------0------0--------0------------|------0-------0------------|
--------7h-8-----7h-8---3----------|--------6---6-----6--------|
----6---------------------6-----6--|----6-----------6----------|
--6-------------------------6~-----|--4------------------------|
-----------------------------------|---------------------------|


                                                        ^           
  S S S S S   E     S Q    S E.     S S S S S   E     S Q    S E.   
---------------------------------|---------------------------------|
----------0----------------------|----------0----------------------|
--------3---3g3pbr--L------------|--------3---3g3pbr--L-1----L-----|
------4---------------4----------|------4---------------1----L-----|
--4-4-----------------2----2-----|--4-4----------------------------|
--2-------0------------------0---|--2-------0-----------4----L-0---|


  ^             ^                                                 
  S S S S E  E  S S E  Q       S S S S E  E     W                 
----------0-----------------|--2-------------|-------------------|
--------2----4--0-----------|--0-------2-----|-------------------|
--1-------------1-3-1-------|--4-3-1---------|--1----------------|
--4-4-----4-----1-----------|--1-----1-4--1--|--3----------------|
--1---1---2-----------------|----------1-----|--4----------------|
----------------4------0----|----------------|-------------------|


                                    ^                    
  E  S S S S E   E   S S S S E      Q.      E  H         
--------------------------------|-----------------------|
---------0---0~--L~--2-0--------|-----------2--L--------|
-----1-3---3---------------3-1--|--(1)------------------|
--------------------------------|---4-------------------|
--------------------------------|---1-------------------|
--0----------------------0------|-----------------------|


                                                      ^                    
  E  T  T  T  T   E      S   S   S    S S S E  S S    Q.     E  H          
---------------------------------------------------|----------------------|
-----2h-4p-2p-0--------------0---L-----------------|----------------------|
----------------3g3pb--3g3pb-Lpb-Lpbr-L-1-3-L----1-|--1-------------------|
-----------------------------------------------4---|--1------L--4~--------|
---------------------------------------------------|------------2~--------|
--0---------------0--------------------------------|--4-------------------|


                                    ^                      
  E    S    S E  S  S E  Q    E     E  E  E  E  H          
------------------------------0--|------------------------|
--------------------0-L--2-------|--4---------------------|
-----3g3pbr-L-1--3b-L-L----------|--4--4-----1------------|
---------------------------------|--4--------1------------|
---------------------------------|--2-----2---------------|
--0-----------0------------------|--------------4~--------|


  E  S S E  E  H            E  S  S E  E  H          
-------------------------|--------------------------|
-------------------------|--------------------------|
--3------3--3--L~--------|--1-------1--1--L~--------|
--4--4-6----3--L~--------|--3--3h-4----1--L~--------|
--6---------4--L~--------|--4-----------------------|
-------------------------|-------------4--L~--------|


                    >                                      
                        |--3--|                            
  E  S  S S S E  E  S S E  E  E     E  E  E  E  Q    Q     
---------------------------------|------------------------|
----------0---0-----2-0----------|-----------2------------|
-----1h-3-1-3-1-----3-1----3--1--|--1---------------------|
-----2------2--------------2--2--|--4--4--------4----4----|
---------------------------------|--1--1--1-----1----1----|
--0--------------0------0--------|------------------------|


  E  T  T  T  T   E  S  S   S    S S S E  S S    Q    E  E  Q    Q     
----------------------------------------------|-----------------------|
-----2h-4p-2p-0---------0---L-----------------|-----------------------|
-----3----------3g3--3b-Lpb-Lpbr-L-1-3------1-|----------3------------|
------------------------------------------4---|--1----------4----4----|
----------------------------------------------|-------------2----2----|
--0---------------0--------------------0------|-------4---------------|


  E    S    S E    S S E  E  E  E     E  Q    E  Q    Q     
--------------------------------4--|--2--------------------|
---------------------0----2--------|--4--4----4------------|
-----3g3pbr-L-1--3g3---------------|--4--4----3------------|
-----------------------------------|-----------------------|
-----------------------------------|-----------------------|
--0-----------0--------0-----0-----|--4--L-------2----2----|


                            ^                       
  E  S  S E  E  H           E  S  S E  E  H         
-------------------------|-------------------------|
-------------------------|-------------0--L--------|
--3-------3--3--L--------|--1-------1--1--L--------|
--4--4h-6----3--L--------|--3--3h-4----4--L--------|
--6----------4--L--------|--4----------------------|
-------------------------|-------------4--L--------|


                                                        ^           
  S S S S S   E     S Q    S E.     S S S S S   E     S Q    S E.   
---------------------------------|---------------------------------|
----------0----------------------|----------0----------------------|
--------3---3g3pbr--L------------|--------3---3g3pbr--L-1----L-----|
------4---------------4----------|------4---------------1----L-----|
--4-4-----------------2----2-----|--4-4----------------------------|
--2-------0------------------0---|--2-------0-----------4----L-0---|


  ^             ^                                        
  S S S S E  E  S S E  Q       S S S S E  E  Q    S E.   
----------0-----------------|--2------------------------|
--------2----4--0-----------|----------2----------------|
--1-------------1-3-1-------|--4-3-1---------1----L-----|
--4-4-----4-----1-----------|--1-----1-4--1--3----L-----|
--1---1---2-----------------|----------1----------------|
----------------4------0----|----------------4----L-1---|


  S S S S S   E     S Q    S E.     S S S S S   E     S Q    E  E   
---------------------------------|---------------------------------|
----------0----------------------|----------0----------------------|
--------3---3g3pbr--L------------|--------3---3g3pbr--L-1----------|
------4---------------4----------|------4---------------1----1-----|
--4-4-----------------2----2-----|--4-4----------------------------|
--2-------0------------------0---|--2-------0-----------4----------|


  ^             ^                  ^                      
  S S S S E  E  S S S S E   E      E  S S E  E  H         
----------0-------------2-------|--2---------------------|
--------2----4--0---0-4----(4)--|-----4---2--------------|
--1---------------1-------------|--3----3----3--1--------|
--4-4-----4-----2---------------|--1------------3--------|
--1---1---2---------------------|---------1--------------|
----------------0-------4-------|---------------4--------|


  E  S   S   S     S   E   E  S     S    S     S E     Q.     E  Q    Q     
------------------------------9---------------------|---------9--L---------|
-----9h-11b--Lpbr--Lb--L---L----11g11pb--Lpbr--L-9--|--7------7--L---------|
-----9h-11b--Lpbr--Lb--L---L----11g11pb--Lpbr--L-9--|--6-------------------|
----------------------------------------------------|----------------------|
----------------------------------------------------|----------------------|
-------------0---------------------------0----------|--6---------6----6----|


      >                                                           
      |----3----|                                                 
  E   S   S     S E   S S E  S  S  E   E     Q    E  E  H         
------9h-11p----9-7-----7-L---------------|--4-------6--L--------|
-----11b--Lpbr--L-9--11-9-L--9-11--L\--7--|--4-------7--L--------|
---------------------11------9-11--L\--6--|----------------------|
------------------------------------------|----------------------|
------------------------------------------|----------------------|
--0---------------0-------0--------0------|--4----4-----7--------|


                            >     ^                      
  E  E   E  S S  E   E   E  E     E  E  E  E  Q.     E   
--------------7~-L~---------4--|--2---------------------|
------------9-7~-L~--2~-----5--|--4--4-----4--L---------|
-----1s--8--9-8~-L~--3~--------|--4--4-----3--L---------|
-----2s--9---------------------|------------------------|
-------------------------------|------------------------|
---------0---------------0-----|--4--4--4-----2---------|


                             ^                        
  E  S  S E  E  Q.     E     E  S  S E  E  Q.     E   
--6-------6--6--L---------|--4-------4--2------------|
--7--7h-9-7--6--L---------|--6--6s-7----4--4---------|
-----8--------------------|--6--6----------4---------|
--------------------------|--------------------------|
--6----------4--L---------|--4-----------------------|
--------------------------|-------------4------------|


                                                        ^           
  S S S S S   E     S Q    S E.     S S S S S   E     S Q    S E.   
---------------------------------|---------------------------------|
----------0----------------------|----------0----------------------|
--------3---3g3pbr--L------------|--------3---3g3pbr--L-1----L-----|
------4---------------4----------|------4---------------1----L-----|
--4-4-----------------2----2-----|--4-4----------------------------|
--2-------0------------------0---|--2-------0-----------4----L-0---|


  ^             ^                                        
  S S S S E  E  S S E  Q       S S S S E  E  Q    S E.   
----------0-----------------|--2------------------------|
--------2----4--0-----------|----------2----------------|
--1-------------1-3-1-------|--4-3-1---------1----L-----|
--4-4-----4-----1-----------|--1-----1-4--1--3----L-----|
--1---1---2-----------------|----------1----------------|
----------------4------0----|----------------4----L-1---|


  S S S S S   E     S Q    S E.     S S S S S   E     S Q    E  E   
---------------------------------|---------------------------------|
----------0----------------------|----------0----------------------|
--------3---3g3pbr--L------------|--------3---3g3pbr--L-1----------|
------4---------------4----------|------4---------------1----1-----|
--4-4-----------------2----2-----|--4-4----------------------------|
--2-------0------------------0---|--2-------0-----------4----------|


  ^             ^                ^                         ^                   
  S S S S E  E  S S S S E  E     E  S S E  E  Q.     E     H        Q.     E   
----------0-------------2-----|--2----------------------|---------------------|
--------2----4--0---0-4----4--|-----4---2---------------|---------------------|
--1---------------1-----------|--3----3----3--1---------|---------------------|
--4-4-----4-----2-------------|--1------------3------4--|--4--------L---------|
--1---1---2-------------------|---------1---------------|--1--------L---------|
----------------0-------4-----|---------------4---------|---------------------|


  >                                      ^                                 
  S S S  S S S  S S S  S S S  S S S S    S S S  S S S  S S S S S S S S E   
--------------------------------------|-----------------------------------|
-----------0-------------0------------|-----------0----------0---0--------|
------3s-4---4s-3---3s-4---4s-3-------|------3s-4---4s-3---3---6---3------|
----6-------------6-------------6---6-|----6-------------6-----------6----|
--6-------------------------------6---|--4-----------------------------4--|
--------------------------------------|-----------------------------------|


                                      >                           
  S S S S  S S S S  S S S S E   E     S S S S S S S S Q    S E.   
---------------0-------------------|----------0------------------|
------0------0--------0------------|------0-------0--------------|
--------7h-8-----7h-8---3----------|--------6---6-----6----L-----|
----6---------------------6-----6--|----6-----------6------------|
--6-------------------------6~-----|--4--------------------------|
-----------------------------------|-------------------------1---|


                                                        ^           
  S S S S S   E     S Q    S E.     S S S S S   E     S Q    S E.   
---------------------------------|---------------------------------|
----------0----------------------|----------0----------------------|
--------3---3g3pbr--L------------|--------3---3g3pbr--L-1----L-----|
------4---------------4----------|------4---------------1----L-----|
--4-4-----------------2----2-----|--4-4----------------------------|
--2-------0------------------0---|--2-------0-----------4----L-0---|


  ^             ^                                        
  S S S S E  E  S S E  Q       S S S S E  E  Q    S E.   
----------0-----------------|--2------------------------|
--------2----4--0-----------|----------2----------------|
--1-------------1-3-1-------|--4-3-1---------1----L-----|
--4-4-----4-----1-----------|--1-----1-4--1--3----L-----|
--1---1---2-----------------|----------1----------------|
----------------4------0----|----------------4----L-1---|


                                                        ^            
  S S S S S   E     S Q    S E.     S S S S S   E     S E  S S Q     
---------------------------------|----------------------------------|
----------0----------------------|----------0-----------------------|
--------3---3g3pbr--L------------|--------3---3g3pbr--L-1-----------|
------4---------------4----------|------4---------------1--1-1-L----|
--4-4-----------------2----2-----|--4-4-----------------------------|
--2-------0------------------0---|--2-------0-----------4-----------|


  ^             ^                ^            ^           
  S S S S E  E  S S S S E  E     E  S S E  E  Q    S E.   
----------0-------------2-----|--2-----------------------|
--------2----4--0---0-4----4--|-----4---2----------------|
--1---------------1-----------|--3----3----3--1----L-----|
--4-4-----4--L--2-------------|--1------------3----L-----|
--1---1---2--L----------------|---------1----------------|
----------------0-------4-----|---------------4----L-1---|


                                                        ^           
  S S S S S   E     S Q    S E.     S S S S S   E     S Q    S E.   
---------------------------------|---------------------------------|
----------0----------------------|----------0----------------------|
--------3---3g3pbr--L------------|--------3---3g3pbr--L-1----L-----|
------4---------------4----------|------4---------------1----L-----|
--4-4-----------------2----2-----|--4-4----------------------------|
--2-------0------------------0---|--2-------0-----------4----L-0---|


  ^             ^                                        
  S S S S E  E  S S E  Q       S S S S E  E  Q    S E.   
----------0-----------------|--2------------------------|
--------2----4--0-----------|----------2----------------|
--1-------------1-3-1-------|--4-3-1---------1----L-----|
--4-4-----4-----1-----------|--1-----1-4--1--3----L-----|
--1---1---2-----------------|----------1----------------|
----------------4------0----|----------------4----L-1---|


  S S S S S   E     S Q    S E.     S S S S S   E     S Q    E  E   
---------------------------------|---------------------------------|
----------0----------------------|----------0----------------------|
--------3---3g3pbr--L------------|--------3---3g3pbr--L-1----------|
------4---------------4----------|------4---------------1----1-----|
--4-4-----------------2----2-----|--4-4----------------------------|
--2-------0------------------0---|--2-------0-----------4----------|


  ^             ^                ^            ^           
  S S S S E  E  S S S S E  E     E  S S E  E  Q    S E.   
----------0-------------2-----|--2-----------------------|
--------2----4--0---0-4----4--|-----4---2----------------|
--1---------------1-----------|--3----3----3--1----L-----|
--4-4-----4--L--2-------------|--1------------3----L-----|
--1---1---2--L----------------|---------1----------------|
----------------0-------4-----|---------------4----L-1---|


                         ^                               
  S S S S S   S   S    S H           H        H          
----------------------------------|--------------------||
----------0-----------------------|--------------------||
--------3---3g3pb-Lpbr-L-4--------|--L--------L--------||
------4------------------4--------|--L--------L--------||
----4--------------------2--------|--L--------L--------||
--2-------0--------------2--------|--L--------L--------||










John Jorgenson Gtr 1



     W                   W                   W                 
E||-------------------|-------------------|-------------------|
B||-------------------|-------------------|-------------------|
G||-------------------|-------------------|-------------------|
D||-------------------|-------------------|-------------------|
A||-------------------|-------------------|-------------------|
E||-------------------|-------------------|-------------------|


  W                   W                   W                   W                 
-------------------|-------------------|-------------------|-------------------|
-------------------|-------------------|-------------------|-------------------|
-------------------|-------------------|-------------------|-------------------|
-------------------|-------------------|-------------------|-------------------|
-------------------|-------------------|-------------------|-------------------|
-------------------|-------------------|-------------------|-------------------|


  H           W                   H.           Q       W                 
-----------|-------------------|--4-----------------|-------------------|
-----------|-------------------|--5-----------------|-------------------|
-----------|-------------------|--4-----------------|-------------------|
-----------|-------------------|--------------------|-------------------|
-----------|-------------------|--------------------|-------------------|
-----------|-------------------|--------------------|-------------------|


  H.           Q       W                   H.           Q     
--4-----------------|-------------------|--4-----------------|
--5-----------------|-------------------|--5-----------------|
--4-----------------|-------------------|--4-----------------|
--------------------|-------------------|--------------------|
--------------------|-------------------|--------------------|
--------------------|-------------------|--------------------|


  W                   W                   W                   W                 
-------------------|-------------------|-------------------|-------------------|
-------------------|-------------------|-------------------|-------------------|
-------------------|-------------------|-------------------|-------------------|
-------------------|-------------------|-------------------|-------------------|
-------------------|-------------------|-------------------|-------------------|
-------------------|-------------------|-------------------|-------------------|


  W                   W                   W                   W                 
-------------------|-------------------|-------------------|-------------------|
-------------------|-------------------|-------------------|-------------------|
-------------------|-------------------|-------------------|-------------------|
-------------------|-------------------|-------------------|-------------------|
-------------------|-------------------|-------------------|-------------------|
-------------------|-------------------|-------------------|-------------------|


  W                   W                   W                   W                 
-------------------|-------------------|-------------------|-------------------|
-------------------|-------------------|-------------------|-------------------|
-------------------|-------------------|-------------------|-------------------|
-------------------|-------------------|-------------------|-------------------|
-------------------|-------------------|-------------------|-------------------|
-------------------|-------------------|-------------------|-------------------|


  W                   W                   W                   W                 
-------------------|-------------------|-------------------|-------------------|
-------------------|-------------------|-------------------|-------------------|
-------------------|-------------------|-------------------|-------------------|
-------------------|-------------------|-------------------|-------------------|
-------------------|-------------------|-------------------|-------------------|
-------------------|-------------------|-------------------|-------------------|


  W                   W                   W                 
-------------------|-------------------|-------------------|
-------------------|-------------------|-------------------|
-------------------|-------------------|-------------------|
-------------------|-------------------|-------------------|
-------------------|-------------------|-------------------|
-------------------|-------------------|-------------------|


   W                   H        Q    E  E     H.           S  E.   
---0----------------|-------------------2--|--4------------4s-6---|
--12----------------|-------------------2--|--5------------5s-7---|
--13----------------|-------------------3--|--4-------------------|
--------------------|----------------------|----------------------|
--------------------|----------------------|----------------------|
--------------------|----------------------|----------------------|


               v                                                     
  S  E.  E  E  H           S  E.  Q    H           W                 
------------------------|-----------------------|-------------------|
--7s-9---L--------------|--4h-5---L----L--------|-------------------|
--6s-8---L-----3--------|--4--------------------|-------------------|
---------------4--------|--6--------------------|-------------------|
---------------2--------|-----------------------|-------------------|
------------------------|-----------------------|-------------------|


  W                   H        Q     E.    S    W                 
-------------------|-------------------------|-------------------|
-------------------|-----------4s----6s---11-|-------------------|
-------------------|-----------4s----6s---11-|-------------------|
-------------------|-------------------------|-------------------|
-------------------|-------------------------|-------------------|
-------------------|-------------------------|-------------------|


  W                   W                   W                   W                 
-------------------|-------------------|-------------------|-------------------|
-------------------|-------------------|-------------------|-------------------|
-------------------|-------------------|-------------------|-------------------|
-------------------|-------------------|-------------------|-------------------|
-------------------|-------------------|-------------------|-------------------|
-------------------|-------------------|-------------------|-------------------|


  W                   W                   W                   W                 
-------------------|-------------------|-------------------|-------------------|
-------------------|-------------------|-------------------|-------------------|
-------------------|-------------------|-------------------|-------------------|
-------------------|-------------------|-------------------|-------------------|
-------------------|-------------------|-------------------|-------------------|
-------------------|-------------------|-------------------|-------------------|


  W                   W                   W                   W                 
-------------------|-------------------|-------------------|-------------------|
-------------------|-------------------|-------------------|-------------------|
-------------------|-------------------|-------------------|-------------------|
-------------------|-------------------|-------------------|-------------------|
-------------------|-------------------|-------------------|-------------------|
-------------------|-------------------|-------------------|-------------------|


  W                   W                   W                   W                 
-------------------|-------------------|-------------------|-------------------|
-------------------|-------------------|-------------------|-------------------|
-------------------|-------------------|-------------------|-------------------|
-------------------|-------------------|-------------------|-------------------|
-------------------|-------------------|-------------------|-------------------|
-------------------|-------------------|-------------------|-------------------|


  W                   W                   W                   W                 
-------------------|-------------------|-------------------|-------------------|
-------------------|-------------------|-------------------|-------------------|
-------------------|-------------------|-------------------|-------------------|
-------------------|-------------------|-------------------|-------------------|
-------------------|-------------------|-------------------|-------------------|
-------------------|-------------------|-------------------|-------------------|


  W                   W                   W                   W                 
-------------------|-------------------|-------------------|-------------------|
-------------------|-------------------|-------------------|-------------------|
-------------------|-------------------|-------------------|-------------------|
-------------------|-------------------|-------------------|-------------------|
-------------------|-------------------|-------------------|-------------------|
-------------------|-------------------|-------------------|-------------------|


  W                   W                   W                   W                 
-------------------|-------------------|-------------------|-------------------|
-------------------|-------------------|-------------------|-------------------|
-------------------|-------------------|-------------------|-------------------|
-------------------|-------------------|-------------------|-------------------|
-------------------|-------------------|-------------------|-------------------|
-------------------|-------------------|-------------------|-------------------|


  W                   W                  
-------------------|-------------------||
-------------------|-------------------||
-------------------|-------------------||
-------------------|-------------------||
-------------------|-------------------||
-------------------|-------------------||










John Jorgenson Gtr 2



     W                   W                   W                 
E||-------------------|-------------------|-------------------|
B||-------------------|-------------------|-------------------|
G||-------------------|-------------------|-------------------|
D||-------------------|-------------------|-------------------|
A||-------------------|-------------------|-------------------|
E||-------------------|-------------------|-------------------|


  W                   W                   W                   W                 
-------------------|-------------------|-------------------|-------------------|
-------------------|-------------------|-------------------|-------------------|
-------------------|-------------------|-------------------|-------------------|
-------------------|-------------------|-------------------|-------------------|
-------------------|-------------------|-------------------|-------------------|
-------------------|-------------------|-------------------|-------------------|


  H           W                   W                   W                 
-----------|-------------------|-------------------|-------------------|
-----------|-------------------|-------------------|-------------------|
-----------|-------------------|-------------------|-------------------|
-----------|-------------------|-------------------|-------------------|
-----------|-------------------|-------------------|-------------------|
-----------|-------------------|-------------------|-------------------|


  W                   W                   W                   W                 
-------------------|-------------------|-------------------|-------------------|
-------------------|-------------------|-------------------|-------------------|
-------------------|-------------------|-------------------|-------------------|
-------------------|-------------------|-------------------|-------------------|
-------------------|-------------------|-------------------|-------------------|
-------------------|-------------------|-------------------|-------------------|


                                            TH                
  W                   W                     W                 
-------------------|-------------------|---------------------|
-------------------|-------------------|--<>5----------------|
-------------------|-------------------|---------------------|
-------------------|-------------------|---------------------|
-------------------|-------------------|---------------------|
-------------------|-------------------|---------------------|


    TH                    TH                    TH                  
    W                     W                     H        H          
---------------------|---------------------|--<>4------------------|
--<>7----------------|--<>5----------------|--<>4--------4~--------|
---------------------|---------------------|-------------4~--------|
---------------------|---------------------|-----------------------|
---------------------|---------------------|-----------------------|
---------------------|---------------------|-----------------------|


    TH                             TH                            
    W                   H          H           W                 
--<>4----------------|----------------------|-------------------|
---------------------|----------------------|-------------------|
--<>4----------------|-----------<>3--------|-------------------|
---------------------|----------------------|-------------------|
---------------------|----------------------|-------------------|
---------------------|----------------------|-------------------|


  W                   W                   W                   W                 
-------------------|-------------------|-------------------|-------------------|
-------------------|-------------------|-------------------|-------------------|
-------------------|-------------------|-------------------|-------------------|
-------------------|-------------------|-------------------|-------------------|
-------------------|-------------------|-------------------|-------------------|
-------------------|-------------------|-------------------|-------------------|


  W                   W                   W                   W                 
-------------------|-------------------|-------------------|-------------------|
-------------------|-------------------|-------------------|-------------------|
-------------------|-------------------|-------------------|-------------------|
-------------------|-------------------|-------------------|-------------------|
-------------------|-------------------|-------------------|-------------------|
-------------------|-------------------|-------------------|-------------------|


  W                   W                   W                   W                 
-------------------|-------------------|-------------------|-------------------|
-------------------|-------------------|-------------------|-------------------|
-------------------|-------------------|-------------------|-------------------|
-------------------|-------------------|-------------------|-------------------|
-------------------|-------------------|-------------------|-------------------|
-------------------|-------------------|-------------------|-------------------|


  W                   W                   W                   W                 
-------------------|-------------------|-------------------|-------------------|
-------------------|-------------------|-------------------|-------------------|
-------------------|-------------------|-------------------|-------------------|
-------------------|-------------------|-------------------|-------------------|
-------------------|-------------------|-------------------|-------------------|
-------------------|-------------------|-------------------|-------------------|


  W                   W                   W                   W                 
-------------------|-------------------|-------------------|-------------------|
-------------------|-------------------|-------------------|-------------------|
-------------------|-------------------|-------------------|-------------------|
-------------------|-------------------|-------------------|-------------------|
-------------------|-------------------|-------------------|-------------------|
-------------------|-------------------|-------------------|-------------------|


  W                   W                   W                   W                 
-------------------|-------------------|-------------------|-------------------|
-------------------|-------------------|-------------------|-------------------|
-------------------|-------------------|-------------------|-------------------|
-------------------|-------------------|-------------------|-------------------|
-------------------|-------------------|-------------------|-------------------|
-------------------|-------------------|-------------------|-------------------|


  W                   W                   W                   W                 
-------------------|-------------------|-------------------|-------------------|
-------------------|-------------------|-------------------|-------------------|
-------------------|-------------------|-------------------|-------------------|
-------------------|-------------------|-------------------|-------------------|
-------------------|-------------------|-------------------|-------------------|
-------------------|-------------------|-------------------|-------------------|


  W                   W                   W                   W                 
-------------------|-------------------|-------------------|-------------------|
-------------------|-------------------|-------------------|-------------------|
-------------------|-------------------|-------------------|-------------------|
-------------------|-------------------|-------------------|-------------------|
-------------------|-------------------|-------------------|-------------------|
-------------------|-------------------|-------------------|-------------------|


  W                   W                   W                   W                 
-------------------|-------------------|-------------------|-------------------|
-------------------|-------------------|-------------------|-------------------|
-------------------|-------------------|-------------------|-------------------|
-------------------|-------------------|-------------------|-------------------|
-------------------|-------------------|-------------------|-------------------|
-------------------|-------------------|-------------------|-------------------|


  W                   W                   W                   W                 
-------------------|-------------------|-------------------|-------------------|
-------------------|-------------------|-------------------|-------------------|
-------------------|-------------------|-------------------|-------------------|
-------------------|-------------------|-------------------|-------------------|
-------------------|-------------------|-------------------|-------------------|
-------------------|-------------------|-------------------|-------------------|


  W                   W                   W                   W                 
-------------------|-------------------|-------------------|-------------------|
-------------------|-------------------|-------------------|-------------------|
-------------------|-------------------|-------------------|-------------------|
-------------------|-------------------|-------------------|-------------------|
-------------------|-------------------|-------------------|-------------------|
-------------------|-------------------|-------------------|-------------------|


  W                   W                   W                 
-------------------|-------------------|-------------------|
-------------------|-------------------|-------------------|
-------------------|-------------------|-------------------|
-------------------|-------------------|-------------------|
-------------------|-------------------|-------------------|
-------------------|-------------------|-------------------|


  W                  
-------------------||
-------------------||
-------------------||
-------------------||
-------------------||
-------------------||










John Jorgenson SOLO



     W                   W                   W                 
E||-------------------|-------------------|-------------------|
B||-------------------|-------------------|-------------------|
G||-------------------|-------------------|-------------------|
D||-------------------|-------------------|-------------------|
A||-------------------|-------------------|-------------------|
E||-------------------|-------------------|-------------------|


  W                   W                   W                   W                 
-------------------|-------------------|-------------------|-------------------|
-------------------|-------------------|-------------------|-------------------|
-------------------|-------------------|-------------------|-------------------|
-------------------|-------------------|-------------------|-------------------|
-------------------|-------------------|-------------------|-------------------|
-------------------|-------------------|-------------------|-------------------|


  H           W                   W                   W                 
-----------|-------------------|-------------------|-------------------|
-----------|-------------------|-------------------|-------------------|
-----------|-------------------|-------------------|-------------------|
-----------|-------------------|-------------------|-------------------|
-----------|-------------------|-------------------|-------------------|
-----------|-------------------|-------------------|-------------------|


  W                   W                   W                   W                 
-------------------|-------------------|-------------------|-------------------|
-------------------|-------------------|-------------------|-------------------|
-------------------|-------------------|-------------------|-------------------|
-------------------|-------------------|-------------------|-------------------|
-------------------|-------------------|-------------------|-------------------|
-------------------|-------------------|-------------------|-------------------|


  W                   W                   W                   W                 
-------------------|-------------------|-------------------|-------------------|
-------------------|-------------------|-------------------|-------------------|
-------------------|-------------------|-------------------|-------------------|
-------------------|-------------------|-------------------|-------------------|
-------------------|-------------------|-------------------|-------------------|
-------------------|-------------------|-------------------|-------------------|


  W                   W                   W                   W                 
-------------------|-------------------|-------------------|-------------------|
-------------------|-------------------|-------------------|-------------------|
-------------------|-------------------|-------------------|-------------------|
-------------------|-------------------|-------------------|-------------------|
-------------------|-------------------|-------------------|-------------------|
-------------------|-------------------|-------------------|-------------------|


  W                   W                   W                   W                 
-------------------|-------------------|-------------------|-------------------|
-------------------|-------------------|-------------------|-------------------|
-------------------|-------------------|-------------------|-------------------|
-------------------|-------------------|-------------------|-------------------|
-------------------|-------------------|-------------------|-------------------|
-------------------|-------------------|-------------------|-------------------|


  W                   W                   W                   W                 
-------------------|-------------------|-------------------|-------------------|
-------------------|-------------------|-------------------|-------------------|
-------------------|-------------------|-------------------|-------------------|
-------------------|-------------------|-------------------|-------------------|
-------------------|-------------------|-------------------|-------------------|
-------------------|-------------------|-------------------|-------------------|


  W                   W                   W                   W                 
-------------------|-------------------|-------------------|-------------------|
-------------------|-------------------|-------------------|-------------------|
-------------------|-------------------|-------------------|-------------------|
-------------------|-------------------|-------------------|-------------------|
-------------------|-------------------|-------------------|-------------------|
-------------------|-------------------|-------------------|-------------------|


  W                   W                   W                   W                 
-------------------|-------------------|-------------------|-------------------|
-------------------|-------------------|-------------------|-------------------|
-------------------|-------------------|-------------------|-------------------|
-------------------|-------------------|-------------------|-------------------|
-------------------|-------------------|-------------------|-------------------|
-------------------|-------------------|-------------------|-------------------|


  W                   W                   W                   W                 
-------------------|-------------------|-------------------|-------------------|
-------------------|-------------------|-------------------|-------------------|
-------------------|-------------------|-------------------|-------------------|
-------------------|-------------------|-------------------|-------------------|
-------------------|-------------------|-------------------|-------------------|
-------------------|-------------------|-------------------|-------------------|


  W                   W                   W                   W                 
-------------------|-------------------|-------------------|-------------------|
-------------------|-------------------|-------------------|-------------------|
-------------------|-------------------|-------------------|-------------------|
-------------------|-------------------|-------------------|-------------------|
-------------------|-------------------|-------------------|-------------------|
-------------------|-------------------|-------------------|-------------------|


  W                   W                   W                 
-------------------|-------------------|-------------------|
-------------------|-------------------|-------------------|
-------------------|-------------------|-------------------|
-------------------|-------------------|-------------------|
-------------------|-------------------|-------------------|
-------------------|-------------------|-------------------|


    E  E  H.                Q    H.              W                 
-----------------------|----------------------|-------------------|
-----------------------|----------------------|-------------------|
--<>8--L--L------------|--<>6----L------------|--8----------------|
-----------------------|----------------------|-------------------|
-----------------------|----------------------|-------------------|
-----------------------|----------------------|-------------------|


  H        Q    S E.       E   E  Q    E   S  S  S   S  S   S  
-----------------------|------------------14------------------|
-----------------------|---------------------12-12h-14-14p-12-|
--6--------L----L-6s---|--15----------------------------------|
-----------------------|------16------------------------------|
-----------------------|--------------------------------------|
-----------------------|--------------------------------------|


                 |--3--|  |---3--|            
   E   E   Q     S  S  S  S  S   S  E   S  S  
---------------------------------------------|
---------------------------------------------|
--15---L~-------16-15-13-16-15p-13-13--15-16-|
---------------------------------------------|
---------------------------------------------|
---------------------------------------------|


   E    E   E.  S  E   S  S     S     S  S  S  
----------------------------------------------|
----------------------11----11g11pbr--L-------|
--15s--11s--9---L/----------------------13-11-|
-------------------------13-------------------|
----------------------------------------------|
----------------------------------------------|


   Q.       E      E      E   S   S  S   S   
--------------------------------------------|
------------------------------------11h-12h-|
--11h------13--13g13pbr---L---Lb--L---------|
--------------------------------------------|
--------------------------------------------|
--------------------------------------------|


   S  S  Q.       S   T   T  S  S  E   S   S  
--------14~------11h-14p-11------------------|
--11s-9---------------------12--------12s-14-|
-------------------------------11------------|
----------------------------------13---------|
---------------------------------------------|
---------------------------------------------|


                    |--3--|  |--3--|  |--3--|        
   Q      E     E   S  S  S  S  S  S  S  S  S  S  S  
-------------------16----16-18----18-19----19-18-16-|
--14~-----L\--/16-----16-------16-------16----------|
----------------------------------------------------|
----------------------------------------------------|
----------------------------------------------------|
----------------------------------------------------|


   E   S  S  E.   S   E.      S  Q     
--18---L\---14------------------------|
-----------------14b--Lpbr----L-------|
--------------------------------16----|
--------------------------------------|
--------------------------------------|
--------------------------------------|


   Q     E.    S  S   S  S   S  S S  S S    Q.      E  E  Q     S  S  
-----------------------------------------|---------------------------|
-----------------------------------------|---------------------------|
--15----15s---13-13s-11-11p-10-10-8------|---------------------------|
------------------------------------11-9-|--8~------------9~----9s-6-|
-----------------------------------------|---------------------------|
-----------------------------------------|---------------------------|


             |-----3----|                           
    E.    S  E   E   S  S  E.   T  T  S   S  S   S  
----------------------------------11-14p-11-14s-16-|
--------------------11-12------12------------------|
--<>6s---11-11--13--------13-----------------------|
---------------------------------------------------|
---------------------------------------------------|
---------------------------------------------------|


   Q.      S    S  S   S  S  S  E   S  S  
--14-------L\------------16-18-19--18-19-|
------------------14s-16-----------------|
--------------/16------------------------|
-----------------------------------------|
-----------------------------------------|
-----------------------------------------|


   E.   S     E      E   E.    S  S     E.      
--18------21g21--21g21--21~----L\---18g18pbr---|
-----------------------------------------------|
-------18--------------------------------------|
-----------------------------------------------|
-----------------------------------------------|
-----------------------------------------------|


       |--3--|  |----3---|  |----3---|              
   E   S  S  S  Q     S  S  Q     S  S  S  S  S  S  
---L--18-------16----------14----------------------|
---------19----------17----------16----17-16-14----|
------------18----------16----------16----------16-|
---------------------------------------------------|
---------------------------------------------------|
---------------------------------------------------|


   S  S  S  S  S   S  S  S  S     S  E   S   S  S   S  
------------------------16-18-18g19-19---Lp-18-16s-14-|
--------14-14--Ls-16-16-------------------------------|
--15-16-----------------------------------------------|
------------------------------------------------------|
------------------------------------------------------|
------------------------------------------------------|


   S  S  S     S  E   S   S  S  S  S  S  E   E   
--14----14---------------------------11-14--11--|
-----14----14g14--L--14s-12-12----12------------|
-------------------------------13---------------|
------------------------------------------------|
------------------------------------------------|
------------------------------------------------|


   E   S  S  E   E   Q      S  E  S     S  S  S  S  S     S     S  S  H         
--14--11----------------------------|------------------------------------------|
---------11-14--11------------------|-----------11-12-11g11pbr--L--L\-7--------|
--------------------13~-----L-11----|--------11--------------------------------|
------------------------------------|--11-11-----------------------------------|
------------------------------------|------------------------------------------|
------------------------------------|------------------------------------------|


    TH   TH   TH              
    E    E    Q    H          
------------<>2----L--------||
-------<>2------------------||
--<>4-----------------------||
----------------------------||
----------------------------||
----------------------------||




Duration Legend
---------------
W - whole
H - half
Q - quarter
E - 8th
S - 16th
T - 32nd
X - 64th
. - note dotted
|-n-|  - n-tuplets


Tablature Legend
----------------
L - tied note
x - dead note
g - grace note
(n) - ghost note
> - accentuded note
NH - natural harmonic
AH - artificial harmonic
TH - tapped harmonic
SH - semi harmonic
PH - pitch harmonic
h - hammer on
p - pull off
b - bend
br - bendRelease
pb - preBend
pbr - preBendRelease
brb - bendReleaseBend
\n/ - tremolo bar dip
\n - tremolo bar dive
-/n - tremolo bar Release up
/n\ - tremolo bar inverted dip
/n - tremolo bar return
-\n - tremolo bar Release down
S - shift slide
s - legato slide
/ -  slide into from below or out of upwards
\ -  slide into from above or out of downwards
~ - vibrato
W - wide vibrato
tr - trill
TP - tremolo picking
T - tapping
S - slap
P - pop
< - fade in
^ - brush up
v - brush down
Добавлено: 10.06.2013
Другие материалы по этой песне:

Страница создана 10.04.2012
http://primanota.ru/the-hellecasters/king-arthurs-dream-chords.htm
Привет, Гость.
Предлагаем пройти революционный курс по гитаре.
Подарок от PrimaNota.Ru, забирай!