PrimaNota.ru - самый крупный в мире бесплатный архив песенных текстов, аккордов, табулатур и нот


The Helio Sequence - Harvester Of Souls - аккорды и текст, видео

Регистрация Запомнить меня
Войти через:  Facebook Google Twitter Vk Yandex Mail.ru

The Helio Sequence - Harvester Of Souls - аккорды и текст, видео

Печатать
Просмотров: 111
Уроки эстрадного вокала в Санкт-Петербурге
Harvester Of Souls
The Helio Sequence
-------------------------------------------------------------------------------
                             Harvester of Souls - The Helio Sequence
-------------------------------------------------------------------------------

From: Rose jimmythegoon(at)hotmail.com. This is my first try writing out a song - feedback welcome.

************************************

Most of the picking patterns are a lot like the intro. 
These tabs aren't exact, but they capture the feel.

Chords used for the Intro & Verses:
C:  x3x05x
Em: x7x08x
G:  x2x03x
G/D: x5x06x

Verse 2&3:
D:   x57x7x

Chords for the chorus are standard

Intro & Verses:
                 C                          Em             G         G/D
e|---------------------------------|------------------|---------|----------|
B|---5-------5--------5-------5----|----8--------8----|-------3-|---0------|
G|------0-------0--------0-------0-|-------0--------0-|----4----|------0---|
D|---------------------------------|------------------|---------|----------|
A|-3------3--------3-------3-------|-7--------7-------|-2-------|-5--------|
E|---------------------------------|------------------|---------|----------|

Chorus:
                 C                               G                
e|---------------------------------|---------------------------------------|
B|---5-------5--------5-------5----|----0--------0---------0---------0-----|
G|------0--------0-------0-------0-|-------0--------0---------0---------0--|
D|---------------------------------|----------0----------------------------|
A|-3-------3--------3------3-------|---------------------------------------|
E|---------------------------------|-3------------------3---------3--------|

                 Am                               Em 
e|---------------------------------|---------------------------------------|
B|---1--------1-------1-------1----|----0--------0---------0---------0-----|
G|------2--------2-------2-------2-|-------0---------0---------0--------0--|
D|---------2-----------------------|----------2----------------------------|
A|-0----------------0-------0------|---------------------2-----------------|
E|---------------------------------|-0-----------------------------0-------|
Intro:
C Em G G/D 
C Em G G/D
C Em

Verse 1:
G       G/D       C        Em    
Played me for the fool
G       G/D     C             Em     
Restful ways of plenty there
G       G/D      C          Em  
Knowing what you knew
G       G/D     C           Em   G  G/D  
Arrested in the night

Chorus:
      C                     G     
But I guess that's what you get for being
        Am           Em
for the harvester of souls
      C                     G
And I guess that's what you get for knowing
         Am      C  Em
that you played

Verse 2:
                 C          Em
No more then you go
G                 C         Em 
breaking with the past    
G       G/D     C           Em 
Flower not of passion there
G        G/D         C      D 
ringing through this land


Chorus:
      C                   G     
But I guess that's how we come to know
    Am           Em
the harvester of souls
       C                    G
And I guess that's what you get for knowing
          Am      C
when you should


Verse 3:
Em         C          Em
One more time...
G                  C              Em 
Breathing with the rhythm of life
G              C         Em 
waving in the crashing towns
G       G/D           C         D 
the precious with the lost

Chorus:
      C            G     
Showing the way in darker times
       Am            Em
to the harvester of souls
        C                   G
and the wreck on shores and rocks you've seen
        Am       C
it will show

Em                C         Em
Played me for the fool
G     G/D        C          Em 
knowing what you knew
G                 C         Em 
Played me for the fool
G        G/D       C         Em 
knowing what you knew
Добавлено: 15.08.2015
Вам также может быть интересно:
Другие материалы по этой песне:
  • Аккорды и текст

Страница создана 15.08.2015
http://primanota.ru/the-helio-sequence/harvester-of-souls-chords.htm
Привет, Гость.
Предлагаем пройти революционный курс по гитаре.
Подарок от PrimaNota.Ru, забирай!