PrimaNota.ru - самый крупный в мире бесплатный архив песенных текстов, аккордов, табулатур и нот


The Heavy - Girl - бас-таба, видео

Регистрация Запомнить меня
Войти через:  Facebook Google Twitter Vk Yandex Mail.ru

The Heavy - Girl - бас-таба, видео

Печатать
Просмотров: 429
Song: Girl
Artist: The Heavy
Album: Great Vengeance and Furious Fire
Tabbed by: Trey V.

Great song by a great band. Tuning is D standard, and it has two different parts. 

Main Riff
F |--------------------------|
C |--------------------------|
G |-3--3-1--1-3--3-1----1----|
D |------------------1-4-----|

Alternate Parts: 

00:40-00:48
F |----------------------------|--------------------|
C |----------------------------|--------------------|
G |-3--3-1--1-3--3-1-----1-3---|----3-3-3-----------|
D |------------------1-4-------|--------------------|

2:06-2:10, 2:22-2:26, 2:38-2:43
F |--------------------------------|
C |--------------------------------|
G |-3--3-1--1-3-3-3-3--------------|
D |--------------------------------|



Comments, suggestions, etc. -- wswakefan@triad.rr.com
Добавлено: 03.12.2013
Другие материалы по этой песне:
  • Аккорды и текст

Страница создана 03.12.2013
http://primanota.ru/the-heavy/girl-chords.htm
Привет, Гость.
Предлагаем пройти революционный курс по гитаре.
Подарок от PrimaNota.Ru, забирай!