PrimaNota.ru - самый крупный в мире бесплатный архив песенных текстов, аккордов, табулатур и нот


The Head And The Heart - Down In The Valley With Violin And Piano - таба, видео

Регистрация Запомнить меня
Войти через:  Facebook Google Twitter Vk Yandex Mail.ru

The Head And The Heart - Down In The Valley With Violin And Piano - таба, видео

Печатать
Просмотров: 95
-------------------------------------------------------------------------------
   DOWN IN THE VALLEY (With Violin and Piano Part) - The Head And The Heart
-------------------------------------------------------------------------------

Tuning:eBGDAE

INTRO


 C5       C       Cadd9     C          Fmaj7
e--3-------0-----------------0----------------------------------------------|
B------1-------1---3---3--------3--1--------1-------1--------1--------1-----|
G---------------------------------------2-------0--------2--------0---------|
D---------------------------------------------------------------------------|
A--3--3-3--3--3-3--3--3-3----3--3--3----3--3-3--3--3-3---3--3-3---3--3-3----|
E---------------------------------------------------------------------------|


  C5       C      Cadd9      C         Fmaj7           C
e--3-------0-----------------0----------------------------------------------|
B------1-------1---3---3--------3--1--------1-------1-----------------------|
G---------------------------------------2-------2--------0--0-0----0-0------|
D----------------------------------------------------------------2--2-------|
A--3--3-3--3--3-3--3--3-3----3--3--3----3--3-3--3--3-3---3---3--------------|
E---------------------------------------------------------------------------|

e------------------------------------------------|
B------------------------------------------------|
G------0-0------0-0-----0-0----------------------|
D-------------2--2-----------2-------------------|
A---3---3------------3---3-----------------------|
E------------------------------------------------|


FIRST VERSE
          Fmaj7          C/Am7     Fmaj7*         C
    "oh i wish i was a slave to an age old trade"

          Fmaj7          C/Am7          Fmaj7*             C
    "like ridin' around on rail cars and workin' long days"

     Fmaj7     C/Am7       Fmaj7*                  C
    "lord have mercy on my rough and rowdy ways"             [x2]


INTRO LICK and VIOLIN PART

e|0-0-------0--0-1-0--0----------|
B|-----3-1-3-------------3-1-3-1-|
G|-------------------------------|
D|-------------------------------|
A|-------------------------------|
E|-------------------------------|



SECOND VERSE
              Fmaj7         C/Am7         Fmaj7*          C
     "call it one drink too many, call it pride of a man"

e|--------------1------------0-------------1------------0------------0-1-3----|
B|--------------------------------------------------------------------------1-|
G|----------------------------------------------------------------------------|
D|----------------------------------------------------------------------------|
A|----------------------------------------------------------------------------|
E|----------------------------------------------------------------------------|


             Fmaj7         C/Am7             Fmaj7*          C
     "no, it don't make no diff'rence if you sit or you stand"  e|-5-7-8--|
                                                                B|--------|
                                                                G|--------|
                                                                D|--------|
                                                                A|--------|
                                                                E|--------|


                 Fmaj7                  C
     "cause they both end in trouble and start with a grin"             
                                                    e|-12/15--|
                                                    B|--------|
                                                    G|--------|
                                                    D|--------|
                                                    A|--------|
                                                    E|--------|



               Fmaj7                  C
     "yeah they both end in trouble and start with a grin"


               Fmaj7     C          Am       C
     "We do it over, and over, and over again"  


               Fmaj7     C          Am       C
     "We do it over, and over, and over again"  

                e|-5-3-1-0----------------|
                B|---------3-1-3-1-1-1----|
                G|------------------------|
                D|------------------------|
                A|------------------------|
                E|------------------------|



BRIDGE  [x3]

      Fmaj7               Am
     "Ohh, ohh           "Ohh, ohh"


      C                   G6 (G with open high E string)
     "Ohh, ohh"

                   Fmaj7          Am
     "I know there's Calfornia,   Oklahoma"
      C                             G6
     "And all of the places I ain't ever been to but"

      Fmaj7                        Am
     "Down In the Valley with     Whiskey Rivers"
      C                             G6
     "these are the places you will find me hiding"


      Fmaj7                      Am
     "These are the places I will always go"

      Fmaj7                      C
     "These are the places I will always go"

          Fmaj7            Am
     "I am on my way, I am on my way"

          Fmaj7              C
     "I am on my way back to where I started"



 Fmaj7  Am   C   G6  [instrumental]


piano part 

e|------------------------------------------------------------------|
B|------------------------------------------------------------------|
G|------------------------------------------------------------------|
D|------------------------------------------------------------------|
A|------------------------------------------------------------------|
E|-1-1-1-1-1-1-1-1-5-5-5-5-5-5-5-5-8-8-8-8-8-8-8-8-3-3-3-3-3-3-3-3--|

e|------------------------------------------------------------------|
B|------------------------------------------------------------------|
G|------------------------------------------------------------------|
D|------------------------------------------------------------------|
A|------------------------------------------------------------------|
E|-1-1-1-1-1-1-1-1-5-5-5-5-5-5-5-5-8-8-8-8-8-8-8-8-3-3-3-3-3-3-3-3--|

"Ohh, ohh"

     "Ohh,oh ohh oh"

     "Ohh, ohh"


e|------------------------------------------------------------------|
B|------------------------------------------------------------------|
G|------------------------------------------------------------------|
D|------------------------------------------------------------------|
A|------------------------------------------------------------------|
E|-1-1-1-1-1-1-1-1-5-5-5-5-5-5-5-5-8-8-8-8-8-8-8-8-8-7-7-7-7-7-7-7--|
     


     (backing vocal)
"One more for the stars in the eyes of the walls"

"I saw your face, I heard you calling out"

piano part (5x)

e|---------------------------0-----0----------|
B|-------------------0-1-1-3---1-3---1-1-0----|
G|---0-2---0-2-2-2-2--------------------------|
D|-3-----3------------------------------------|
A|--------------------------------------------|
E|--------------------------------------------|

"I saw your face in a crowd and you came out"

"Just like the sun and the moon and the stars at night"

(there are more to the lyrics, this is just what came with the album)

"Ohh, ooh"


Violin (2x)

e|-5-7-8-5-7-8-8-8-10-12-8-10-12-8-10-12-8-8-7----|
B|------------------------------------------------|
G|------------------------------------------------|
D|------------------------------------------------|
A|------------------------------------------------|
E|------------------------------------------------|

          Fmaj7            Am
     "I am on my way, I am on my way"
          Fmaj7              C
     "I am on my way back to where I started"


Piano (2x)
e|---------------------------0-----0----------|
B|-------------------0-1-1-3---1-3---1-1-0----|
G|---0-2---0-2-2-2-2--------------------------|
D|-3-----3------------------------------------|
A|--------------------------------------------|
E|--------------------------------------------|

            Fmaj7                   Am
          "Calfornia,               Oklahoma"
      C                             G6
     "And all of the places I ain't ever been to but"

      Fmaj                        Am
     "Down In the Valley with     Whiskey Rivers"
      C                             G6
     "these are the places you will find me hiding"


      Fmaj7                      Am
     "These are the places I will always go"
      Fmaj7                      C
     "These are the places I will always go"

        [Break]
          C         C

          Fmaj7          C/Am7     Fmaj7         C
    "oh i wish i was a slave to an age old trade"

     Fmaj7     C/Am7       Fmaj7                  C
    "lord have mercy on my rough and rowdy ways"

************************************

| /   slide up
| \   slide down
| h   hammer-on
| p   pull-off
| ~   vibrato
| +   harmonic
| x   Mute note
| b   Bend
| pb  Pre-bend
| br  Bend release
| pbr Pre-bend release
| brb Bend release bend

************************************
Добавлено: 03.01.2016
Другие материалы по этой песне:
  • Аккорды и текст

Страница создана 03.01.2016
http://primanota.ru/the-head-and-the-heart/down-in-valley-with-violin-and-piano-chords.htm
Привет, Гость.
Предлагаем пройти революционный курс по гитаре.
Подарок от PrimaNota.Ru, забирай!