PrimaNota.ru - самый крупный в мире бесплатный архив песенных текстов, аккордов, табулатур и нот


The Haarp Machine - The Escapist Notion - таба, видео

Регистрация Запомнить меня
Войти через:  Facebook Google Twitter Vk Yandex Mail.ru

The Haarp Machine - The Escapist Notion - таба, видео

Печатать
Просмотров: 167
                              The Escapist Notion                               



                                                               The HAARP Machine


Guitar 1 
Tunning CGCFAD


     Intro Piano                                                       
                         PM PM PM PM PM    PM PM PM PM PM PM PM        
                                                                |-3-|  
     W                   S  S  S  S  S  E  S  S  S  S  S  S  S  S S S  
D||-------------------|-----------------------------------------4-7-4-|
A||-------------------|-----------------------------------------------|
F||-------------------|-----------------------------------------------|
C||-------------------|-----------------------------------------------|
G||-------------------|-----------------------------------------------|
C||-------------------|--5--4--5--4--5-----4--5--4--5--4--5--0--------|


  PM PM PM PM PM    PM PM PM PM PM PM PM        
                                         |-3-|  
  S  S  S  S  S  E  S  S  S  S  S  S  S  S S S  
-----------------------------------------4-7-4-|
-----------------------------------------------|
-----------------------------------------------|
-----------------------------------------------|
-----------------------------------------------|
--5--4--5--4--5-----4--5--4--5--4--5--0--------|


  PM PM PM PM PM    PM PM PM PM PM PM PM        
                                         |-3-|  
  S  S  S  S  S  E  S  S  S  S  S  S  S  S S S  
-----------------------------------------4-7-4-|
-----------------------------------------------|
-----------------------------------------------|
-----------------------------------------------|
-----------------------------------------------|
--5--4--5--4--5-----4--5--4--5--4--5--0--------|


  PM PM PM PM PM    PM PM PM PM PM PM PM        
                                         |-3-|  
  S  S  S  S  S  E  S  S  S  S  S  S  S  S S S  
-----------------------------------------4-7-4-|
-----------------------------------------------|
-----------------------------------------------|
-----------------------------------------------|
-----------------------------------------------|
--5--4--5--4--5-----4--5--4--5--4--5--0--------|


  PM PM PM PM PM    PM PM PM PM PM PM PM        
                                         |-3-|  
  S  S  S  S  S  E  S  S  S  S  S  S  S  S S S  
-----------------------------------------4-7-4-|
-----------------------------------------------|
-----------------------------------------------|
-----------------------------------------------|
-----------------------------------------------|
--5--4--5--4--5-----4--5--4--5--4--5--0--------|


  PM PM PM PM PM    PM PM PM PM PM PM PM        
                                         |-3-|  
  S  S  S  S  S  E  S  S  S  S  S  S  S  S S S  
-----------------------------------------4-7-4-|
-----------------------------------------------|
-----------------------------------------------|
-----------------------------------------------|
-----------------------------------------------|
--5--4--5--4--5-----4--5--4--5--4--5--0--------|


  PM PM PM PM PM    PM PM PM PM PM PM PM        
                                         |-3-|  
  S  S  S  S  S  E  S  S  S  S  S  S  S  S S S  
-----------------------------------------4-7-4-|
-----------------------------------------------|
-----------------------------------------------|
-----------------------------------------------|
-----------------------------------------------|
--5--4--5--4--5-----4--5--4--5--4--5--0--------|


  PM PM PM PM PM    PM PM PM PM PM PM PM        
                                         |-3-|  
  S  S  S  S  S  E  S  S  S  S  S  S  S  S S S  
-----------------------------------------4-7-4-|
-----------------------------------------------|
-----------------------------------------------|
-----------------------------------------------|
-----------------------------------------------|
--5--4--5--4--5-----4--5--4--5--4--5--0--------|


     PM PM PM PM PM PM PM   PM   PM   PM    
  E  S  S  S  S  S  S  S  S S  S S  S S  S  
-----3--3----------------------------------|
-------------------------------------------|
-----------5--5--3--3-----3----3----3----3-|
-------------------------------------------|
-------------------------------------------|
-----------------------1----1----1----1----|


           PM   PM PM     PM   PM PM  
  Q    S S S  S S  S  S S S  S S  S   
-------2--------------2--------------|
---------4----3---------4----1-------|
-----------0--------------0----------|
--7----------------------------------|
--6-------------0--------------0-----|
--4----------------0--------------0--|


  PM PM   PM   PM   PM PM   PM   PM   PM    
  S  S  S S  S S  S S  S  S S  S S  S S  S  
-------------------------------------------|
--------8----------------------------------|
-------------5------------3----3----3----3-|
------------------8------------------------|
-------------------------------------------|
--5--4----4----4----4--1----1----1----1----|


           PM   PM PM     PM   PM PM  
  Q    S S S  S S  S  S S S  S S  S   
-------2--------------2--------------|
---------4----3---------4----1-------|
-----------0--------------0----------|
--7----------------------------------|
--6-------------0--------------0-----|
--4----------------0--------------0--|


  PM PM   PM   PM   PM PM   PM   PM   PM    
  S  S  S S  S S  S S  S  S S  S S  S S  S  
-------------------------------------------|
--------8----------------------------------|
-------------5------------3----3----3----3-|
------------------8------------------------|
-------------------------------------------|
--5--4----4----4----4--1----1----1----1----|


           PM   PM PM     PM   PM PM  
  Q    S S S  S S  S  S S S  S S  S   
-------2--------------2--------------|
---------4----3---------4----1-------|
-----------0--------------0----------|
--7----------------------------------|
--6-------------0--------------0-----|
--4----------------0--------------0--|


  PM PM   PM   PM   PM PM   PM   PM   PM    
  S  S  S S  S S  S S  S  S S  S S  S S  S  
-------------------------------------------|
--------8----------------------------------|
-------------5------------3----3----3----3-|
------------------8------------------------|
-------------------------------------------|
--5--4----4----4----4--1----1----1----1----|


           PM   PM PM     PM   PM PM  
  Q    S S S  S S  S  S S S  S S  S   
-------2--------------2--------------|
---------4----3---------4----1-------|
-----------0--------------0----------|
--7----------------------------------|
--6-------------0--------------0-----|
--4----------------0--------------0--|


  PM PM PM PM PM PM PM PM PM PM PM PM PM PM PM PM  
  S  S  S  S  S  S  S  S  S  S  S  S  S  S  S  S   
--------------------------------------------------|
--------------------------------------------------|
--------------------------------------------------|
--------------------------------------------------|
-----------------------------------------1--1-----|
--5--4--0--5--4--5--1--5--4--0--1--4--1--------0--|


  PM PM PM PM PM PM PM PM PM PM PM PM PM PM PM PM  
  S  S  S  S  S  S  S  S  S  S  S  S  S  S  S  S   
--------------------------------------------------|
--------------------------------------------------|
--------------------------------------------------|
--------------------------------------------------|
--------------------------------------------------|
--1--4--5--4--5--1--5--4--0--5--4--5--0--4--1--0--|


      PM PM PM PM PM     PM PM PM PM     PM  
  S S S  S  S  S  S  S S S  S  S  S  S S S   
--------------------------------------------|
--------------------------------------------|
--3-2----------------3-2-------------6-6----|
--------------------------------------------|
--------------------------------------------|
------0--5--4--5--1------0--1--4--1------0--|


  PM PM PM PM PM PM     PM PM PM PM PM     PM  
  S  S  S  S  S  S  S S S  S  S  S  S  S S S   
----------------------------------------------|
----------------------------------------------|
--------------------3-2----------------2------|
-----------------------------------------4----|
----------------------------------------------|
--1--4--5--4--5--1------0--5--4--5--0------0--|


  PM PM   PM   PM   PM PM   PM   PM   PM                                        
  S  S  S S  S S  S S  S  S S  S S  S S  S    Q     S  S S  S E   S S S  S S S  
-------------------------------------------|-------------8-10----10-8-6--------|
--------8----------------------------------|-------10-11----------------10-8-7-|
-------------5------------3----3----3----3-|-----------------------------------|
------------------8------------------------|--7--------------------------------|
-------------------------------------------|--6--------------------------------|
--5--4----4----4----4--1----1----1----1----|--4--------------------------------|


  PM PM   PM   PM   PM PM   PM   PM   PM    
  S  S  S S  S S  S S  S  S S  S S  S S  S  
-------------------------------------------|
--------8----------------------------------|
-------------5------------3----3----3----3-|
------------------8------------------------|
-------------------------------------------|
--5--4----4----4----4--1----1----1----1----|


           PM   PM PM     PM   PM PM           PM PM PM PM           
  Q    S S S  S S  S  S S S  S S  S     Q.     S  S  S  S  S S Q     
-------2--------------2--------------|---------------------2-L-L----|
---------4----3---------4----1-------|---------3--3--3--3----4-L----|
-----------0--------------0----------|------------------------------|
--7----------------------------------|--7---------------------------|
--6-------------0--------------0-----|--6---------------------------|
--4----------------0--------------0--|--4---------------------------|


         PM PM PM PM                                     
  Q.     S  S  S  S  S S Q       E.  S S S S S H         
---------------------5-L-L----|-------------------------|
---------3--3--3--3----4-L----|------7-4----------------|
------------------------------|--3-------7-3------------|
--7---------------------------|--5-----------7----------|
--6---------------------------|--0-------------3--------|
--4---------------------------|----------------1--------|


                                            PM PM PM PM           
  E.   S S S  S E.   S S S  S S S    Q.     S  S  S  S  S S Q     
---------6-8-10-----10-8-6--------|---------------------2-L-L----|
------10-------------------10-8-7-|---------3--3--3--3----4-L----|
----------------------------------|------------------------------|
--3-------------------------------|--7---------------------------|
--5-------------------------------|--6---------------------------|
----------------------------------|--4---------------------------|


         PM PM PM PM                                             
  Q.     S  S  S  S  S S Q       E.  S S S S S  S S S S S S S S  
---------------------5-L-L----|---------------------------------|
---------3--3--3--3----4-L----|------7-4------------------------|
------------------------------|--3-------7-3------7-3-----------|
--7---------------------------|--5-----------7p-0-----7---------|
--6---------------------------|-------------------------5-1-----|
--4---------------------------|-----------------------------5-4-|


                                                     PM PM PM PM  
  E.   S S S  S E.   S S S  S S S    S  E  S S  E  S S  S  S  S   
---------6-8-10-----10-8-6--------|------------------------------|
------10-------------------10-8-7-|--7p-4----7p-4----------------|
----------------------------------|--------7-------7-------------|
----------------------------------|------------------------------|
--5-------------------------------|------------------0--0--0--0--|
--0-------------------------------|------------------------------|


                  PM PM PM PM        PM PM PM PM  
  S  E  S S  E  S S  S  S  S  S  E.  S  S  S  S   
-------------------------------------------------|
--7p-4----7p-4-----------------------------------|
--------7-------7-------------5p-2---------------|
-------------------------------------------------|
------------------0--0--0--0---------0--0--0--0--|
-------------------------------------------------|


                  PM PM PM PM  
  S  E  S S  E  S S  S  S  S   
------------------------------|
--7p-4----7p-4----------------|
--------7-------7-------------|
------------------------------|
------------------0--0--0--0--|
------------------------------|


                  PM PM PM PM PM PM PM PM PM PM PM PM  
  S  E  S S  E  S S  S  S  S  S  S  S  S  S  S  S  S   
------------------------------------------------------|
--7p-4----7p-4----------------------------------------|
--------7-------7-------------------------------------|
------------------------------------------------------|
------------------0--0--0--0--1--1--1--1--3--3--3--3--|
------------------------------------------------------|


                  PM PM PM PM  
  S  E  S S  E  S S  S  S  S   
------------------------------|
--7p-4----7p-4----------------|
--------7-------7-------------|
------------------------------|
------------------0--0--0--0--|
------------------------------|


                  PM PM PM PM PM PM PM PM PM PM PM PM  
  S  E  S S  E  S S  S  S  S  S  S  S  S  S  S  S  S   
------------------------------------------------------|
--7p-4----7p-4----------------------------------------|
--------7-------7-------------------------------------|
------------------------------------------------------|
------------------------------------------------------|
------------------0--0--0--0--4--4--4--4--1--1--1--1--|


                  PM PM PM PM  
  S  E  S S  E  S S  S  S  S   
------------------------------|
--7p-4----7p-4----------------|
--------7-------7-------------|
------------------------------|
------------------0--0--0--0--|
------------------------------|


                  PM PM PM PM PM PM PM PM PM PM PM PM  
  S  E  S S  E  S S  S  S  S  S  S  S  S  S  S  S  S   
------------------------------------------------------|
--7p-4----7p-4----------------------------------------|
--------7-------7-------------------------------------|
------------------------------------------------------|
------------------0--0--0--0--1--1--1--1--3--3--3--3--|
------------------------------------------------------|


   S  S S  S  S  S S  S  S  S S  S  S  S S  S  
--10---------10---------10---------10---------|
-----11---10----11---10----11---10----11---10-|
----------------------------------------------|
----------------------------------------------|
----------------------------------------------|
----------------------------------------------|


   S  S S  S  S  S S  S  S  S S  S  S  S S  S  
--10---------10---------10---------10---------|
-----11---10----11---10----11---10----11---10-|
----------------------------------------------|
----------------------------------------------|
----------------------------------------------|
----------------------------------------------|


   S  S S  S  S  S S  S  S  S S  S  S  S S  S  
--10---------10---------10---------10---------|
----------10---------10---------10---------10-|
-----12---------12---------12---------12------|
----------------------------------------------|
----------------------------------------------|
----------------------------------------------|


   S  S S  S  S  S S  S  S  S S  S  S  S S  S  
--10---------10---------10---------10---------|
----------10---------10---------10---------10-|
-----12---------12---------12---------12------|
----------------------------------------------|
----------------------------------------------|
----------------------------------------------|


   S  S S  S  S  S S  S  S  S S  S  S  S S  S  
--10---------10---------10---------10---------|
-----11---10----11---10----11---10----11---10-|
----------------------------------------------|
----------------------------------------------|
----------------------------------------------|
----------------------------------------------|


   S  S S  S  S  S S  S  S  S S  S  S  S S  S  
--10---------10---------10---------10---------|
-----11---10----11---10----11---10----11---10-|
----------------------------------------------|
----------------------------------------------|
----------------------------------------------|
----------------------------------------------|


   S  S S  S  S  S S  S  S  S S  S  S  S S  S  
--10---------10---------10---------10---------|
----------10---------10---------10---------10-|
-----12---------12---------12---------12------|
----------------------------------------------|
----------------------------------------------|
----------------------------------------------|


   S  S S  S  S  S S  S  S  S S  S  S  S S  S  
--10---------10---------10---------10---------|
----------10---------10---------10---------10-|
-----12---------12---------12---------12------|
----------------------------------------------|
----------------------------------------------|
----------------------------------------------|


   S  S S  S  S  S S  S  S  S S  S  S  S S  S  
--10---------10---------10---------10---------|
-----11---10----11---10----11---10----11---10-|
----------------------------------------------|
----------------------------------------------|
----------------------------------------------|
----------------------------------------------|


   S  S S  S  S  S S  S  S  S S  S  S  S S  S  
--10---------10---------10---------10---------|
-----11---10----11---10----11---10----11---10-|
----------------------------------------------|
----------------------------------------------|
----------------------------------------------|
----------------------------------------------|


   S  S S  S  S  S S  S  S  S S  S  S  S S  S  
--10---------10---------10---------10---------|
----------10---------10---------10---------10-|
-----12---------12---------12---------12------|
----------------------------------------------|
----------------------------------------------|
----------------------------------------------|


   S  S S  S  S  S S  S  S  S S  S  S  S S  S  
--10---------10---------10---------10---------|
----------10---------10---------10---------10-|
-----12---------12---------12---------12------|
----------------------------------------------|
----------------------------------------------|
----------------------------------------------|


   S  S S  S  S  S S  S  S  S S  S  S  S S  S  
--10---------10---------10---------10---------|
-----11---10----11---10----11---10----11---10-|
----------------------------------------------|
----------------------------------------------|
----------------------------------------------|
----------------------------------------------|


   S  S S  S  S  S S  S  S  S S  S  S  S S  S  
--10---------10---------10---------10---------|
-----11---10----11---10----11---10----11---10-|
----------------------------------------------|
----------------------------------------------|
----------------------------------------------|
----------------------------------------------|


   S  S S  S  S  S S  S  S  S S  S  S  S S  S  
--10---------10---------10---------10---------|
----------10---------10---------10---------10-|
-----12---------12---------12---------12------|
----------------------------------------------|
----------------------------------------------|
----------------------------------------------|


   S  S S  S  S  S S  S  S  S S  S  S  S S  S  
--10---------10---------10---------10---------|
----------10---------10---------10---------10-|
-----11---------11---------11---------11------|
----------------------------------------------|
----------------------------------------------|
----------------------------------------------|


  PM PM      PM PM PM PM    PM PM     
  S  S  Q    S  S  S  S  E  S  S  E   
-------------------------------------|
-------------------------------------|
-------------------------------------|
-------------------------------------|
--0--0-------0--0--0--0-----0--0-----|
--0--0-------0--0--0--0-----0--0-----|


  PM PM PM PM PM   PM PM   PM PM PM   PM PM  
  E  S  S  S  S  S S  S  S S  S  S  S S  S   
--------------------------------------------|
--------------------------------------------|
--------------------------------------------|
--------------------------------------------|
--0--0--0--0--0----0--0----0--0--0----0--0--|
--0--0--0--0--0----0--0----0--0--0----0--0--|


  PM PM      PM PM PM PM    PM PM     
  S  S  Q    S  S  S  S  E  S  S  E   
-------------------------------------|
-------------------------------------|
-------------------------------------|
-------------------------------------|
--3--3-------3--3--3--3-----3--3-----|
--1--1-------1--1--1--1-----1--1-----|


  PM PM PM PM PM   PM PM   PM PM PM   PM PM  
  E  S  S  S  S  S S  S  S S  S  S  S S  S   
--------------------------------------------|
--------------------------------------------|
--------------------------------------------|
--------------------------------------------|
--3--3--3--3--3----3--3----3--3--3----3--3--|
--1--1--1--1--1----1--1----1--1--1----1--1--|


  PM PM      PM PM PM PM    PM PM     
  S  S  Q    S  S  S  S  E  S  S  E   
-------------------------------------|
-------------------------------------|
-------------------------------------|
-------------------------------------|
--0--0-------0--0--0--0-----0--0-----|
--0--0-------0--0--0--0-----0--0-----|


  PM PM PM PM PM   PM PM   PM PM PM   PM PM  
  E  S  S  S  S  S S  S  S S  S  S  S S  S   
--------------------------------------------|
--------------------------------------------|
--------------------------------------------|
--------------------------------------------|
--0--0--0--0--0----0--0----0--0--0----0--0--|
--0--0--0--0--0----0--0----0--0--0----0--0--|


  PM PM      PM PM PM PM    PM PM     
  S  S  Q    S  S  S  S  E  S  S  E   
-------------------------------------|
-------------------------------------|
-------------------------------------|
-------------------------------------|
--3--3-------3--3--3--3-----3--3-----|
--1--1-------1--1--1--1-----1--1-----|


  PM PM PM PM PM   PM PM   PM PM PM   PM PM  
  E  S  S  S  S  S S  S  S S  S  S  S S  S   
--------------------------------------------|
--------------------------------------------|
--------------------------------------------|
--------------------------------------------|
--3--3--3--3--3----3--3----3--3--3----3--3--|
--1--1--1--1--1----1--1----1--1--1----1--1--|


  PM PM      PM PM PM PM    PM PM     
  S  S  Q    S  S  S  S  E  S  S  E   
-------------------------------------|
-------------------------------------|
-------------------------------------|
-------------------------------------|
--0--0-------0--0--0--0-----0--0-----|
--0--0-------0--0--0--0-----0--0-----|


  PM PM PM PM PM   PM PM   PM PM PM   PM PM  
  E  S  S  S  S  S S  S  S S  S  S  S S  S   
--------------------------------------------|
--------------------------------------------|
--------------------------------------------|
--------------------------------------------|
--0--0--0--0--0----0--0----0--0--0----0--0--|
--0--0--0--0--0----0--0----0--0--0----0--0--|


  PM PM      PM PM PM PM    PM PM     
  S  S  Q    S  S  S  S  E  S  S  E   
-------------------------------------|
-------------------------------------|
-------------------------------------|
-------------------------------------|
--3--3-------3--3--3--3-----3--3-----|
--1--1-------1--1--1--1-----1--1-----|


  PM PM PM PM PM   PM PM   PM PM PM   PM PM  
  E  S  S  S  S  S S  S  S S  S  S  S S  S   
--------------------------------------------|
--------------------------------------------|
--------------------------------------------|
--------------------------------------------|
--3--3--3--3--3----3--3----3--3--3----3--3--|
--1--1--1--1--1----1--1----1--1--1----1--1--|


  PM PM      PM PM PM PM    PM PM     
  S  S  Q    S  S  S  S  E  S  S  E   
-------------------------------------|
-------------------------------------|
-------------------------------------|
-------------------------------------|
--0--0-------0--0--0--0-----0--0-----|
--0--0-------0--0--0--0-----0--0-----|


  PM PM PM PM PM   PM PM   PM PM PM   PM PM  
  E  S  S  S  S  S S  S  S S  S  S  S S  S   
--------------------------------------------|
--------------------------------------------|
--------------------------------------------|
--------------------------------------------|
--0--0--0--0--0----0--0----0--0--0----0--0--|
--0--0--0--0--0----0--0----0--0--0----0--0--|


  PM PM      PM PM PM PM    PM PM     
  S  S  Q    S  S  S  S  E  S  S  E   
-------------------------------------|
-------------------------------------|
-------------------------------------|
-------------------------------------|
--3--3-------3--3--3--3-----3--3-----|
--1--1-------1--1--1--1-----1--1-----|


  PM PM PM PM PM   PM PM   PM PM PM   PM PM                                    
  E  S  S  S  S  S S  S  S S  S  S  S S  S     E.  S  E  S S  S S E.  S  S S   
--------------------------------------------|---------------------------------|
--------------------------------------------|------------------------------3s-|
--------------------------------------------|---------------------------------|
--------------------------------------------|---------------------------------|
--3--3--3--3--3----3--3----3--3--3----3--3--|---------------------------------|
--1--1--1--1--1----1--1----1--1--1----1--1--|--0---1p-0--L-1p-0-0-0---1p-0----|


  S S S S S S S S E  E  E  E     E.  S E  S  S S E  E  S  E   
------------------------------|------------------------------|
--4-----3-3-------------------|------------------------------|
----5-5-----4-4-4-------------|------------------------------|
------------------------------|------------------------------|
------------------------------|------------------------------|
------------------1--1--0--0--|--1---0-1--1p-0-1-L--0--1p-0--|


                  PM PM PM PM PM PM  
  E  E  S E  S E  S  S  S  S  S  S   
------------------------------------|
------------------------------------|
------------------------------------|
------------------------------------|
------------------------------------|
--1--0--1-1--0-L--0--1--4--0--4--5--|


        PM      PM PM   PM   PM   PM PM PM  
  S  E  S  S  S S  S  S S  S S  S S  S  S   
-------------------------------------------|
-------------------------------------------|
---------------------------7---------------|
-----------5h-7----------------------------|
-------------------------------------------|
--7s-8--8-------8--8----8----8----7--8--7--|


  PM PM        PM    PM PM PM PM PM  PM                                        
  S  S  S S E  E  E  S  S  S  S  S   S    E   S E  S  E  E      S   S E  S  S  
---------------------------------------|--------------------------------------|
--------3-L-L--------------------------|--------------------------------------|
----------3-3--------------------------|--------------------------------------|
------------5--------------------------|--8---L-8--8--L--8---------------8----|
------------------8--------------------|-----12------12-----12g13s-12-L----12-|
--8--8---------0--8--8--7--8--7--8--10-|--------------------------------------|


                      PM PM  PMPM  PM PM                                   
  E   E  S   S S S E  S  S   S S   S  S    E.  S  E  S S  S S E.  S  S S   
----------------------------------------|---------------------------------|
----------------------------------------|------------------------------3s-|
----------------------------------------|---------------------------------|
--8---L--8s-10-8-7-L--7--8--10-8--10-12-|---------------------------------|
-----12---------------------------------|---------------------------------|
----------------------------------------|--0---1p-0--L-1p-0-0-0---1p-0----|


  S S S S S S S S E  E  E  E     E.  S E  S  S S E  E  S  E   
------------------------------|------------------------------|
--4-----3-3-------------------|------------------------------|
----5-5-----4-4-4-------------|------------------------------|
------------------------------|------------------------------|
------------------------------|------------------------------|
------------------1--1--0--0--|--1---0-1--1p-0-1-L--0--1p-0--|


                  PM PM PM PM PM PM  
  E  E  S E  S E  S  S  S  S  S  S   
------------------------------------|
------------------------------------|
------------------------------------|
------------------------------------|
------------------------------------|
--1--0--1-1--0-L--0--1--4--0--4--5--|


        PM      PM PM   PM   PM   PM PM PM  
  S  E  S  S  S S  S  S S  S S  S S  S  S   
-------------------------------------------|
-------------------------------------------|
---------------------------7---------------|
-----------5h-7----------------------------|
-------------------------------------------|
--7s-8--8-------8--8----8----8----7--8--7--|


  PM PM        PM    PM PM PM PM PM  PM                                        
  S  S  S S E  E  E  S  S  S  S  S   S    E   S E  S  E  E      S   S E  S  S  
---------------------------------------|--------------------------------------|
--------3-L-3--------------------------|--------------------------------------|
----------3-3--------------------------|--------------------------------------|
------------5--------------------------|--8---L-8--8--L--8---------------8----|
------------------8--------------------|-----12------12-----12g13s-12-L----12-|
--8--8---------0--8--8--7--8--7--8--10-|--------------------------------------|


                                         ^        PM PM  PM PMPM PM PM PM  
  E   E  S   S S S E  S S  S S  S  S     H        S  S   S  S S  S  S  S   
-------------------------------------|------------------------------------|
-------------------------------------|--10--------------10-10-------------|
-------------------------------------|---7--------7--7--------7--7--------|
--8---L--8s-10-8-7-L--7-8-10-8-10-12-|---5--------------------------5--5--|
-----12------------------------------|---0--------------------------------|
-------------------------------------|---0--------------------------------|


  ^        PM PM  PM PMPM PM PM PM     ^        PM PM  PM PMPM PM PM PM  
  H        S  S   S  S S  S  S  S      H        S  S   S  S S  S  S  S   
-----------------------------------|------------------------------------|
-----------------11-11-------------|--10--------------10-10-------------|
--8--------8--8--------8--8--------|---7--------7--7--------7--7--------|
--8--------------------------5--5--|---5--------------------------5--5--|
--5--------------------------------|---0--------------------------------|
--0--------------------------------|---0--------------------------------|


  ^        PM PM  PM PMPM PM PM PM     ^        PM PM  PM PMPM PM PM PM  
  H        S  S   S  S S  S  S  S      H        S  S   S  S S  S  S  S   
-----------------------------------|------------------------------------|
-----------------11-11-------------|--10--------------10-10-------------|
--8--------8--8--------8--8--------|---7--------7--7--------7--7--------|
--8--------------------------5--5--|---5--------------------------5--5--|
--5--------------------------------|---0--------------------------------|
--0--------------------------------|---0--------------------------------|


  ^        PM PM  PM PMPM PM PM PM     ^        PM PM  PM PMPM PM PM PM  
  H        S  S   S  S S  S  S  S      H        S  S   S  S S  S  S  S   
-----------------------------------|------------------------------------|
-----------------11-11-------------|--10--------------10-10-------------|
--8--------8--8--------8--8--------|---7--------7--7--------7--7--------|
--8--------------------------5--5--|---5--------------------------5--5--|
--5--------------------------------|---0--------------------------------|
--0--------------------------------|---0--------------------------------|


  ^        PM PM  PM PMPM PM PM PM                                          
  H        S  S   S  S S  S  S  S     W                   W                 
-----------------------------------|-------------------|-------------------|
-----------------11-11-------------|-------------------|-------------------|
--8--------8--8--------8--8--------|-------------------|-------------------|
--8--------------------------5--5--|-------------------|-------------------|
--5--------------------------------|-------------------|-------------------|
--0--------------------------------|-------------------|-------------------|


  W                   W                   W                   W                 
-------------------|-------------------|-------------------|-------------------|
-------------------|-------------------|-------------------|-------------------|
-------------------|-------------------|-------------------|-------------------|
-------------------|-------------------|-------------------|-------------------|
-------------------|-------------------|-------------------|-------------------|
-------------------|-------------------|-------------------|-------------------|


  W                   W                   W                 
-------------------|-------------------|-------------------|
-------------------|-------------------|-------------------|
-------------------|-------------------|-------------------|
-------------------|-------------------|-------------------|
-------------------|-------------------|-------------------|
-------------------|-------------------|-------------------|


  ^         PM PM PM PM PM PM PM PM   ^                PM PM PM PM PM PM 
  H         S  S  S  S  S  S  S  S    H         S   S  S  S  S  S  S  S  
-----------------------------------|------------------------------------|
-----------------15-15-------------|------------------16-16-------------|
--7--------12-12-------12-12-------|--8--------12h-14-------14-14-12-12-|
--5--------------------------12-12-|--8---------------------------------|
--0--------------------------------|--5---------------------------------|
--0--------------------------------|--0---------------------------------|


  ^         PM PM PM PM PM PM PM PM   ^                PM PM PM PM PM PM 
  H         S  S  S  S  S  S  S  S    H         S   S  S  S  S  S  S  S  
-----------------------------------|------------------------------------|
-----------------15-15-------------|------------------16-16-------------|
--7--------12-12-------12-12-------|--8--------12h-14-------14-14-12-12-|
--5--------------------------12-12-|--8---------------------------------|
--0--------------------------------|--5---------------------------------|
--0--------------------------------|--0---------------------------------|


  ^         PM PM PM PM PM PM PM PM   ^                PM PM PM PM PM PM 
  H         S  S  S  S  S  S  S  S    H         S   S  S  S  S  S  S  S  
-----------------------------------|------------------------------------|
-----------------15-15-------------|------------------16-16-------------|
--7--------12-12-------12-12-------|--8--------12h-14-------14-14-12-12-|
--5--------------------------12-12-|--8---------------------------------|
--0--------------------------------|--5---------------------------------|
--0--------------------------------|--0---------------------------------|


  ^         PM PM PM PM PM PM PM PM   ^                PM PM PM PM PM PM  
  H         S  S  S  S  S  S  S  S    H         S   S  S  S  S  S  S  S   
-----------------------------------|------------------------------------||
-----------------15-15-------------|------------------16-16-------------||
--7--------12-12-------12-12-------|--8--------12h-14-------14-14-12-12-||
--5--------------------------12-12-|--8---------------------------------||
--0--------------------------------|--5---------------------------------||
--0--------------------------------|--0---------------------------------||




Guitar 2
Tunning CGCFAD


                         PM PM PM PM PM       PM PM PM PM PM PM PM     
                                        |-3-|                          
     W                   S  S  S  S  S  S S S S  S  S  S  S  S  S  E   
D||-------------------|-----------------4-7-4-------------------------|
A||-------------------|-----------------------------------------------|
F||-------------------|-----------------------------------------------|
C||-------------------|-----------------------------------------------|
G||-------------------|-----------------------------------------------|
C||-------------------|--5--4--5--4--5--------4--5--4--5--4--5--0-----|


  PM PM PM PM PM       PM PM PM PM PM PM PM     
                 |-3-|                          
  S  S  S  S  S  S S S S  S  S  S  S  S  S  E   
-----------------4-7-4-------------------------|
-----------------------------------------------|
-----------------------------------------------|
-----------------------------------------------|
-----------------------------------------------|
--5--4--5--4--5--------4--5--4--5--4--5--0-----|


  PM PM PM PM PM       PM PM PM PM PM PM PM     
                 |-3-|                          
  S  S  S  S  S  S S S S  S  S  S  S  S  S  E   
-----------------4-7-4-------------------------|
-----------------------------------------------|
-----------------------------------------------|
-----------------------------------------------|
-----------------------------------------------|
--8--7--8--7--8--------7--8--7--8--7--8--0-----|


  PM PM PM PM PM       PM PM PM PM PM PM PM     
                 |-3-|                          
  S  S  S  S  S  S S S S  S  S  S  S  S  S  E   
-----------------4-7-4-------------------------|
-----------------------------------------------|
-----------------------------------------------|
-----------------------------------------------|
-----------------------------------------------|
--8--7--8--7--8--------7--8--7--8--7--8--0-----|


  PM PM PM PM PM       PM PM PM PM PM PM PM     
                 |-3-|                          
  S  S  S  S  S  S S S S  S  S  S  S  S  S  E   
-----------------4-7-4-------------------------|
-----------------------------------------------|
-----------------------------------------------|
-----------------------------------------------|
-----------------------------------------------|
--5--4--5--4--5--------4--5--4--5--4--5--0-----|


  PM PM PM PM PM       PM PM PM PM PM PM PM     
                 |-3-|                          
  S  S  S  S  S  S S S S  S  S  S  S  S  S  E   
-----------------4-7-4-------------------------|
-----------------------------------------------|
-----------------------------------------------|
-----------------------------------------------|
-----------------------------------------------|
--5--4--5--4--5--------4--5--4--5--4--5--0-----|


  PM PM PM PM PM       PM PM PM PM PM PM PM     
                 |-3-|                          
  S  S  S  S  S  S S S S  S  S  S  S  S  S  E   
-----------------4-7-4-------------------------|
-----------------------------------------------|
-----------------------------------------------|
-----------------------------------------------|
-----------------------------------------------|
--8--7--8--7--8--------7--8--7--8--7--8--0-----|


  PM PM PM PM PM       PM PM PM PM PM PM PM     
                 |-3-|                          
  S  S  S  S  S  S S S S  S  S  S  S  S  S  E   
-----------------4-7-4-------------------------|
-----------------------------------------------|
-----------------------------------------------|
-----------------------------------------------|
-----------------------------------------------|
--8--7--8--7--8--------7--8--7--8--7--8--0-----|


     PM PM    PM PM PM   PM   PM   PM           PM PM PM       PM PM PM     PM  
  E  S  S  E  S  S  S  S S  S S  S S  S    Q    S  S  S  S S S S  S  S  S S S   
----------------------------------------|------------------2--------------2----|
----------------------------------------|----------------3---4----------4------|
----------------------------------------|-------------0--------0---------------|
-----------------------5----5----5----5-|--7-----------------------------------|
----------------------------------------|--6----------------------0------------|
-----8--8-----7--7--1----1----1----1----|--4----0--0-----------------0------0--|


  PM PM   PM   PM   PM PM   PM   PM   PM    
  S  S  S S  S S  S S  S  S S  S S  S S  S  
-------------------------------------------|
--------8----------------------------------|
-------------5-----------------------------|
------------------8-------5----5----5----5-|
-------------------------------------------|
--5--4----4----4----4--1----1----1----1----|


       PM PM PM       PM PM PM     PM  
  Q    S  S  S  S S S S  S  S  S S S   
------------------2--------------2----|
----------------3---4----------4------|
-------------0--------0---------------|
--7-----------------------------------|
--6----------------------0------------|
--4----0--0-----------------0------0--|


  PM PM   PM   PM   PM PM   PM   PM   PM    
  S  S  S S  S S  S S  S  S S  S S  S S  S  
-------------------------------------------|
--------8----------------------------------|
-------------5-----------------------------|
------------------8-------5----5----5----5-|
-------------------------------------------|
--5--4----4----4----4--1----1----1----1----|


       PM PM PM       PM PM PM     PM  
  Q    S  S  S  S S S S  S  S  S S S   
------------------2--------------2----|
----------------3---4----------4------|
-------------0--------0---------------|
--7-----------------------------------|
--6----------------------0------------|
--4----0--0-----------------0------0--|


  PM PM   PM   PM   PM PM   PM   PM   PM    
  S  S  S S  S S  S S  S  S S  S S  S S  S  
-------------------------------------------|
--------8----------------------------------|
-------------5-----------------------------|
------------------8-------5----5----5----5-|
-------------------------------------------|
--5--4----4----4----4--1----1----1----1----|


       PM PM PM       PM PM PM     PM  
  Q    S  S  S  S S S S  S  S  S S S   
------------------2--------------2----|
----------------3---4----------4------|
-------------0--------0---------------|
--7-----------------------------------|
--6----------------------0------------|
--4----0--0-----------------0------0--|


      PM PM PM PM PM     PM PM PM PM     PM  
  S S S  S  S  S  S  S S S  S  S  S  S S S   
--------------------------------------------|
--------------------------------------------|
-------------------------------------3-3----|
--5-4----------------5-4--------------------|
--------------------------------------------|
------0--5--4--5--1------0--1--4--1------0--|


  PM PM PM PM PM PM     PM PM PM PM PM     PM  
  S  S  S  S  S  S  S S S  S  S  S  S  S S S   
----------------------------------------------|
----------------------------------------------|
----------------------------------------------|
--------------------5-4----------------4-1----|
----------------------------------------------|
--1--4--5--4--5--1------0--5--4--5--0------0--|


      PM PM PM PM PM     PM PM PM PM     PM  
  S S S  S  S  S  S  S S S  S  S  S  S S S   
--------------------------------------------|
--------------------------------------------|
-------------------------------------3-3----|
--5-4----------------5-4--------------------|
--------------------------------------------|
------0--5--4--5--1------0--1--4--1------0--|


  PM PM PM PM PM PM     PM PM PM PM PM     PM  
  S  S  S  S  S  S  S S S  S  S  S  S  S S S   
----------------------------------------------|
----------------------------------------------|
----------------------------------------------|
--------------------5-4----------------4-1----|
----------------------------------------------|
--1--4--5--4--5--1------0--5--4--5--0------0--|


  PM PM   PM   PM   PM PM   PM   PM   PM                                   
  S  S  S S  S S  S S  S  S S  S S  S S  S    Q    S S S S E  S S S S S S  
-------------------------------------------|-----------2-3----3-2---------|
--------8----------------------------------|-------3-4------------4-3-----|
-------------5-----------------------------|--------------------------3-2-|
------------------8-------5----5----5----5-|--7---------------------------|
-------------------------------------------|--6---------------------------|
--5--4----4----4----4--1----1----1----1----|--4---------------------------|


  PM PM   PM   PM   PM PM   PM   PM   PM    
  S  S  S S  S S  S S  S  S S  S S  S S  S  
-------------------------------------------|
--------8----------------------------------|
-------------5-----------------------------|
------------------8-------5----5----5----5-|
-------------------------------------------|
--5--4----4----4----4--1----1----1----1----|


       PM PM PM PM     PM PM PM PM PM PM               PM PM        PM PM  
  Q    S  S  S  S  S S S  S  S  S  S  S     Q    S E.  S  S  S S E  S  S   
-------------------2---------------------|-------2-L---------2-L-L--------|
---------------------4-------------------|---------4-----------4-L--------|
-----------------------0-----------------|--------------------------------|
--7--------------------------------------|--7-----------------------------|
--6-----------------------0--------------|--6----------0--0---------0--0--|
--4----0--0--0--0------------0--0--0--0--|--4-----------------------------|


             PM PM        PM PM                                 
  Q    S E.  S  S  S S E  S  S     Q    Q    S  S S S S S  S S  
-------5-L---------5-L-L--------|------------6-10-6------------|
---------4-----------4-L--------|-------------------8----------|
--------------------------------|--3------------------7--------|
--7-----------------------------|--5--------------------8------|
--6----------0--0---------0--0--|--0----------------------10-6-|
--4-----------------------------|------------------------------|


                                            PM PM        PM PM  
  E.  S S S S E.  S S S S S S    Q    S E.  S  S  S S E  S  S   
----------2-3-----3-2---------|-------2-L---------2-L-L--------|
------3-4-------------4-3-----|---------4-----------4-L--------|
--3-----------------------3-2-|--------------------------------|
--5---------------------------|--7-----------------------------|
--0---------------------------|--6----------0--0---------0--0--|
------------------------------|--4-----------------------------|


             PM PM        PM PM                                        
  Q    S E.  S  S  S S E  S  S     E.  S S S S S  S  S  S S S S  S  S  
-------5-L---------5-L-L--------|-------------------10p-6-------------|
---------4-----------4-L--------|------7-4----------------8-----------|
--------------------------------|--3-------7-3--------------7---------|
--7-----------------------------|--5-----------7p-0-----------8-------|
--6----------0--0---------0--0--|--0----------------------------10p-6-|
--4-----------------------------|-------------------------------------|


                                                 PM PM PM PM  
  E.  S S S S E.  S S S S S S    S  E  S S  E  S S  S  S  S   
----------2-3-----3-2---------|------------------------------|
------3-4-------------4-3-----|--7p-4----7p-4----------------|
--3-----------------------3-2-|--------7-------7-------------|
--5---------------------------|------------------------------|
--0---------------------------|------------------0--0--0--0--|
------------------------------|------------------------------|


                  PM PM PM PM PM PM PM PM   NH  NH  NH  NH  NH  NH   
  S  E  S S  E  S S  S  S  S  S  S  S  S    T   T   T   T   T   T S  
----------------------------------------------<>x-------------------|
--7p-4----7p-4----------------------------<>x-----<>x---------------|
--------7-------7-------------------------------------<>x-----------|
----------------------------------------------------------<>x-------|
------------------0--0--0--0----------------------------------<>x---|
------------------------------4--4--4--4----------------------------|


                  PM PM PM PM                    PM PM PM PM PM    PM     
  S  E  S S  E  S S  S  S  S     S  E  S S  E  S S  S  S  S  E  E  E  E   
------------------------------|------------------------------------------|
--7p-4----7p-4----------------|--7p-4----7p-4----------------------------|
--------7-------7-------------|--------7-------7-------------------------|
------------------------------|---------------------------------5-----7--|
------------------0--0--0--0--|------------------0--0--0--0--------------|
------------------------------|------------------------------0-----4-----|


         PM PM PM              PM PM  PM PM PM PMPM PM PM       PM       
  S E  S E  E  E  S  S     S S S  S   S  S  S  S E  E  E  S   S E  S  S  
--8-6--5---------------|--10-8------------------------------------------|
-----------------------|------------------------------------------------|
-----------------------|------------------------------------------------|
------------------4s-7-|-------8--8--12-12------------------------------|
-----------------------|------------------------------------------------|
---------0--0--0-------|-------------------12-12-0--0--0--5s-10-0--4s-8-|


         PM PM PM              PM PM  PM PM PM PMPM PM PM       PM       
  S E  S E  E  E  S  S     S S S  S   S  S  S  S E  E  E  S   S E  S  S  
--8-6--5---------------|--10-8------------------------------------------|
-----------------------|------------------------------------------------|
-----------------------|------------------------------------------------|
------------------4s-7-|-------8--8--12-12------------------------------|
-----------------------|------------------------------------------------|
---------0--0--0-------|-------------------12-12-0--0--0--5s-10-0--4s-8-|


  S S S S S S S S S S S S S S S S    S S S S S S S S S S S S S S S S  
----------------------------------|----------------------------------|
--7-------7-------7-------7-------|--7-------7-------7-------7-------|
----7---7---7---7---7---7---7---7-|----7---7---7---7---7---7---7---7-|
----------------------------------|----------------------------------|
----------------------------------|----------------------------------|
----------------------------------|----------------------------------|


  S S S S S S S S S S S S S S S S    S S S S S S S S S S S S S S S S  
----------------------------------|----------------------------------|
--7-------7-------7-------7-------|--7-------7-------7-------7-------|
----7---7---7---7---7---7---7---7-|----7---7---7---7---7---7---7---7-|
----------------------------------|----------------------------------|
----------------------------------|----------------------------------|
----------------------------------|----------------------------------|


  S S S S S S S S S S S S S S S S    S S S S S S S S S S S S S S S S  
----------------------------------|----------------------------------|
--7-------7-------7-------7-------|--7-------7-------7-------7-------|
----7---7---7---7---7---7---7---7-|----7---7---7---7---7---7---7---7-|
----------------------------------|----------------------------------|
----------------------------------|----------------------------------|
----------------------------------|----------------------------------|


  S S S S S S S S S S S S S S S S    S S S S S S S S S S S S S S S S  
----------------------------------|----------------------------------|
--7-------7-------7-------7-------|--7-------7-------7-------7-------|
----7---7---7---7---7---7---7---7-|----7---7---7---7---7---7---7---7-|
----------------------------------|----------------------------------|
----------------------------------|----------------------------------|
----------------------------------|----------------------------------|


  S S S S S S S S S S S S S S S S    S S S S S S S S S S S S S S S S  
----------------------------------|----------------------------------|
--7-------7-------7-------7-------|--7-------7-------7-------7-------|
----7---7---7---7---7---7---7---7-|----7---7---7---7---7---7---7---7-|
----------------------------------|----------------------------------|
----------------------------------|----------------------------------|
----------------------------------|----------------------------------|


  S S S S S S S S S S S S S S S S    S S S S S S S S S S S S S S S S  
----------------------------------|----------------------------------|
--7-------7-------7-------7-------|--7-------7-------7-------7-------|
----7---7---7---7---7---7---7---7-|----7---7---7---7---7---7---7---7-|
----------------------------------|----------------------------------|
----------------------------------|----------------------------------|
----------------------------------|----------------------------------|


  S S S S S S S S S S S S S S S S    S S S S S S S S S S S S S S S S  
----------------------------------|----------------------------------|
--7-------7-------7-------7-------|--7-------7-------7-------7-------|
----7---7---7---7---7---7---7---7-|----7---7---7---7---7---7---7---7-|
----------------------------------|----------------------------------|
----------------------------------|----------------------------------|
----------------------------------|----------------------------------|


  S S S S S S S S S S S S S S S S    S S S S S S S S S S S S S S S S  
----------------------------------|----------------------------------|
--7-------7-------7-------7-------|--7-------7-------7-------7-------|
----7---7---7---7---7---7---7---7-|--------7-------7-------7-------7-|
----------------------------------|----7-------7-------7-------7-----|
----------------------------------|----------------------------------|
----------------------------------|----------------------------------|


  PM PM      PM PM PM PM    PM PM     
  S  S  Q    S  S  S  S  E  S  S  E   
-------------------------------------|
-------------------------------------|
-------------------------------------|
-------------------------------------|
--0--0-------0--0--0--0-----0--0-----|
--0--0-------0--0--0--0-----0--0-----|


  PM PM PM PM PM   PM PM   PM PM PM   PM PM  
  E  S  S  S  S  S S  S  S S  S  S  S S  S   
--------------------------------------------|
--------------------------------------------|
--------------------------------------------|
--------------------------------------------|
--0--0--0--0--0----0--0----0--0--0----0--0--|
--0--0--0--0--0----0--0----0--0--0----0--0--|


  PM PM      PM PM PM PM    PM PM     
  S  S  Q    S  S  S  S  E  S  S  E   
-------------------------------------|
-------------------------------------|
-------------------------------------|
-------------------------------------|
--3--3-------3--3--3--3-----3--3-----|
--1--1-------1--1--1--1-----1--1-----|


  PM PM PM PM PM   PM PM   PM PM PM   PM PM  
  E  S  S  S  S  S S  S  S S  S  S  S S  S   
--------------------------------------------|
--------------------------------------------|
--------------------------------------------|
--------------------------------------------|
--3--3--3--3--3----3--3----3--3--3----3--3--|
--1--1--1--1--1----1--1----1--1--1----1--1--|


  PM PM      PM PM PM PM    PM PM     
  S  S  Q    S  S  S  S  E  S  S  E   
-------------------------------------|
-------------------------------------|
-------------------------------------|
-------------------------------------|
--0--0-------0--0--0--0-----0--0-----|
--0--0-------0--0--0--0-----0--0-----|


  PM PM PM PM PM   PM PM   PM PM PM   PM PM  
  E  S  S  S  S  S S  S  S S  S  S  S S  S   
--------------------------------------------|
--------------------------------------------|
--------------------------------------------|
--------------------------------------------|
--0--0--0--0--0----0--0----0--0--0----0--0--|
--0--0--0--0--0----0--0----0--0--0----0--0--|


  PM PM      PM PM PM PM    PM PM     
  S  S  Q    S  S  S  S  E  S  S  E   
-------------------------------------|
-------------------------------------|
-------------------------------------|
-------------------------------------|
--3--3-------3--3--3--3-----3--3-----|
--1--1-------1--1--1--1-----1--1-----|


  PM PM PM PM PM   PM PM   PM PM PM   PM PM  
  E  S  S  S  S  S S  S  S S  S  S  S S  S   
--------------------------------------------|
--------------------------------------------|
--------------------------------------------|
--------------------------------------------|
--3--3--3--3--3----3--3----3--3--3----3--3--|
--1--1--1--1--1----1--1----1--1--1----1--1--|


  PM PM      PM PM PM PM    PM PM     
  S  S  Q    S  S  S  S  E  S  S  E   
-------------------------------------|
-------------------------------------|
-------------------------------------|
-------------------------------------|
--0--0-------0--0--0--0-----0--0-----|
--0--0-------0--0--0--0-----0--0-----|


  PM PM PM PM PM   PM PM   PM PM PM   PM PM  
  E  S  S  S  S  S S  S  S S  S  S  S S  S   
--------------------------------------------|
--------------------------------------------|
--------------------------------------------|
--------------------------------------------|
--0--0--0--0--0----0--0----0--0--0----0--0--|
--0--0--0--0--0----0--0----0--0--0----0--0--|


  PM PM      PM PM PM PM    PM PM     
  S  S  Q    S  S  S  S  E  S  S  E   
-------------------------------------|
-------------------------------------|
-------------------------------------|
-------------------------------------|
--3--3-------3--3--3--3-----3--3-----|
--1--1-------1--1--1--1-----1--1-----|


  PM PM PM PM PM   PM PM   PM PM PM   PM PM  
  E  S  S  S  S  S S  S  S S  S  S  S S  S   
--------------------------------------------|
--------------------------------------------|
--------------------------------------------|
--------------------------------------------|
--3--3--3--3--3----3--3----3--3--3----3--3--|
--1--1--1--1--1----1--1----1--1--1----1--1--|


  PM PM      PM PM PM PM    PM PM     
  S  S  Q    S  S  S  S  E  S  S  E   
-------------------------------------|
-------------------------------------|
-------------------------------------|
-------------------------------------|
--0--0-------0--0--0--0-----0--0-----|
--0--0-------0--0--0--0-----0--0-----|


  PM PM PM PM PM   PM PM   PM PM PM   PM PM  
  E  S  S  S  S  S S  S  S S  S  S  S S  S   
--------------------------------------------|
--------------------------------------------|
--------------------------------------------|
--------------------------------------------|
--0--0--0--0--0----0--0----0--0--0----0--0--|
--0--0--0--0--0----0--0----0--0--0----0--0--|


  PM PM      PM PM PM PM    PM PM     
  S  S  Q    S  S  S  S  E  S  S  E   
-------------------------------------|
-------------------------------------|
-------------------------------------|
-------------------------------------|
--3--3-------3--3--3--3-----3--3-----|
--1--1-------1--1--1--1-----1--1-----|


  PM PM PM PM PM   PM PM   PM PM PM   PM PM                                  
  E  S  S  S  S  S S  S  S S  S  S  S S  S     E.  S  E  S S  S S E.  S  E   
--------------------------------------------|-------------------------------|
--------------------------------------------|-------------------------------|
--------------------------------------------|-------------------------------|
--------------------------------------------|-------------------------------|
--3--3--3--3--3----3--3----3--3--3----3--3--|-------------------------------|
--1--1--1--1--1----1--1----1--1--1----1--1--|--0---1p-0--L-1p-0-0-0---1p-0--|


  E  E  E  S  S E  E  E  E     E.  S E  S  S S E  E  S  E   
----------------------------|------------------------------|
----------------------------|------------------------------|
----------------------------|------------------------------|
----------------------------|------------------------------|
----------------------------|------------------------------|
--0--1--0--1p-0-1--1--0--0--|--1---0-1--1p-0-1-L--0--1p-0--|


                  PM PM PM PM PM PM  
  E  E  S E  S E  S  S  S  S  S  S   
------------------------------------|
------------------------------------|
------------------------------------|
------------------------------------|
------------------------------------|
--1--0--1-1--0-L--0--1--4--0--4--5--|


        PM      PM PM   PM   PM   PM PM PM  
  S  E  S  S  S S  S  S S  S S  S S  S  S   
-------------------------------------------|
-------------------------------------------|
---------------------------7---------------|
-----------5h-7----------------------------|
-------------------------------------------|
--7s-8--8-------8--8----8----8----7--8--7--|


  PM PM        PM    PM PM PM PM PM  PM                              
  S  S  S S E  E  E  S  S  S  S  S   S    E.  S S E  S E.  E  S  E   
---------------------------------------|----------------------------|
--------3-L-3--------------------------|----------------------------|
----------3-3--------------------------|----------------------------|
------------5--------------------------|----------------------------|
------------------8--------------------|----------------------------|
--8--8---------0--8--8--7--8--7--8--10-|--1---0-1-1--0-1---0--1p-0--|


                 PM PM PM PM PM PM                                  
  E  E  E  E  E  S  S  S  S  S  S     E.  S  E  S S  S S E.  S  E   
-----------------------------------|-------------------------------|
-----------------------------------|-------------------------------|
-----------------------------------|-------------------------------|
-----------------------------------|-------------------------------|
-----------------------------------|-------------------------------|
--1--0--1--1--0--0--1--4--0--4--5--|--0---1p-0--L-1p-0-0-0---1p-0--|


  E  E  E  S  S E  E  E  E     E.  S E  S  S S E  E  S  E   
----------------------------|------------------------------|
----------------------------|------------------------------|
----------------------------|------------------------------|
----------------------------|------------------------------|
----------------------------|------------------------------|
--0--1--0--1p-0-1--1--0--0--|--1---0-1--1p-0-1-L--0--1p-0--|


                  PM PM PM PM PM PM  
  E  E  S E  S E  S  S  S  S  S  S   
------------------------------------|
------------------------------------|
------------------------------------|
------------------------------------|
------------------------------------|
--1--0--1-1--0-L--0--1--4--0--4--5--|


        PM      PM PM   PM   PM   PM PM PM  
  S  E  S  S  S S  S  S S  S S  S S  S  S   
-------------------------------------------|
-------------------------------------------|
---------------------------7---------------|
-----------5h-7----------------------------|
-------------------------------------------|
--7s-8--8-------8--8----8----8----7--8--7--|


  PM PM        PM    PM PM PM PM PM  PM                              
  S  S  S S E  E  E  S  S  S  S  S   S    E.  S S E  S E.  E  S  E   
---------------------------------------|----------------------------|
--------3-L-3--------------------------|----------------------------|
----------3-3--------------------------|----------------------------|
------------5--------------------------|----------------------------|
------------------8--------------------|----------------------------|
--8--8---------0--8--8--7--8--7--8--10-|--1---0-1-1--0-1---0--1p-0--|


                 PM PM PM PM PM PM    ^        PM PM PM PM PM PM PM PM  
  E  E  E  E  E  S  S  S  S  S  S     H        S  S  S  S  S  S  S  S   
-----------------------------------|-----------------------------------|
-------------------
Добавлено: 03.03.2012
Вам также может быть интересно:
Другие материалы по этой песне:

Страница создана 03.03.2012
http://primanota.ru/the-haarp-machine/the-escapist-notion-chords.htm
Привет, Гость.
Предлагаем пройти революционный курс по гитаре.
Подарок от PrimaNota.Ru, забирай!