PrimaNota.ru - самый крупный в мире бесплатный архив песенных текстов, аккордов, табулатур и нот


The Growlers - Row - таба, видео

Регистрация Запомнить меня
Войти через:  Facebook Google Twitter Vk Yandex Mail.ru

The Growlers - Row - таба, видео

Печатать
Просмотров: 130
                                     / | \
          Posted this song,      << / / \ \ >>
        just because....            \// \\/
              why not?           << //ROW\\ >>
                                    \\   //
                                 << /\\ //\ >>
                                    \ \|/ /
                                     \/|\/


          |_ 0 S

                 _____
                 |        ____ ____             |       ____ ____   /\
                 |  ____  |__| |  |  \        / |      |     |__|  / /
                 |______\ | \  |  |   \  /\  /  |      |___  | \   \
                          |  \ |__|    \/  \/   |_____ |     |  \   \
                                                       |______       \
                                                                   / /
                                                                   \/




    *INTRO RIFF:

    e|--------------------------------------------------------------|
    b|--------------------------------------------------------------|
    g|-----5--------------------------------------------------------|
    D|----------5--5/8--7-5-----------------------------------------|
    A|--3--------------------8--5-6-5--3----------------------------|
    E|--------------------------------------------------------------|


    *MAIN RIFF PLAYED THROUGHOUT THE WHOLE SONG:

    e|----3-3------3-3------3-3------3-3------3-3------3-3----------|
    b|----5-5------5-5------5-5------5-5------5-5------5-5----------|
    g|----5-5-3----5-5-3----5-5-3----5-5-3----5-5-3----5-5-3--------|
    D|----5-5-3----5-5-3----5-5-3----5-5-3----5-5-3----5-5-3--------|
    A|--3-3-3----3-3-3----3-3-3----3-3-3----3-3-3----3-3-3----------|
    E|--------------------------------------------------------------|

    PLAY MAIN RIFF FOR AWHILE, THEN REPEAT INTRO RIFF

    THEN MAIN RIFF..

    THEN REPEAT INTRO RIFF

    THEN MAIN RIFF AGAIN

    INTRO RIFF, THEN THIS COOL SOLO:

    *SOLO

    e|--------------------------------------------------------------|
    b|--------------------------------------------------------------|
    g|---5b--3------------------------3-----------------------------|
    D|---------5--3------------5--3-5---5--5-5--5-5-----------------|
    A|-3-------------3-3---3-3--------------------------------------|
    E|--------------------------------------------------------------|

    e|-------------------------------------------------------------------|
    b|-------------------------------------------------------------------|
    g|---5b--3-----------------------------------------------------------|
    D|---------5--3------------5--3-5-3---------------5~-----5---5-5--5-5|
    A|-3-------------3-3---3-3-----------3--3-3--3-3------3--------------|
    E|-------------------------------------------------------------------|


    e|-------------------------------------------------------------------|
    b|-------------------------------------------------------------------|
    g|----------------------------5b--3----------------------------------|
    D|-5--3--5--3-----------------------5--3-----------5--3--5--3--------|
    A|-------------3--3-3--3-3--3-------------3-3--3-3------------3--3-3-|
    E|-------------------------------------------------------------------|


    e|-------------------------------------------------------------------|
    b|-------------------------------------------------------------------|
    g|-------3---3---5-3---3---------------------------------------------|
    D|-------------------------5--3-3---3---5-5---------------1---3--1---|
    A|-3-3----------------------------6---6------3~---3--1--3----------3-|
    E|-------------------------------------------------------------------|


    e|-------------------------------------------------------------------|
    b|-------------------------------------------------------------------|
    g|-----------------3---3---5-3---3-----------------------------------|
    D|------------1----------------------5--3-3---3---5-5---------------1|
    A|---3--1--3--------------------------------6---6------3~---3--1--3--|
    E|-------------------------------------------------------------------|


    e|-------------------------------------------------------------------|
    b|-------------------------------------------------------------------|
    g|-------------------------------------------------------------------|
    D|---3--1------------------------------------------------------------|
    A|--------3-----3--1--3/---------------------------------------------|
    E|-------------------------------------------------------------------|


     THEN REPEAT MAIN RIFF

     THEN INTRO RIFF

     MAIN RIFF AGAIN

     THEN PART OF THE SOLO:


    e|-------------------------------------------------------------------|
    b|-------------------------------------------------------------------|
    g|-3---3---5-3---3---------------------------------------------------|
    D|-------------------5--3-3---3---5-5---------------1----------------|
    A|--------------------------6---6------3~---3--1--3------------------|
    E|-------------------------------------------------------------------|


    KEY: / = SLIDE UP
         b = BEND
         ~ = LET RING
Добавлено: 08.11.2013
Другие материалы по этой песне:
  • Аккорды и текст

Страница создана 08.11.2013
http://primanota.ru/the-growlers/row-chords.htm
Привет, Гость.
Предлагаем пройти революционный курс по гитаре.
Подарок от PrimaNota.Ru, забирай!