PrimaNota.ru - самый крупный в мире бесплатный архив песенных текстов, аккордов, табулатур и нот


The Growlers - For Skin - аккорды и текст, видео

Регистрация Запомнить меня
Войти через:  Facebook Google Twitter Vk Yandex Mail.ru

The Growlers - For Skin - аккорды и текст, видео

Печатать
Просмотров: 52
For Skin
The Growlers
The Growlers - For Skin
song: https://www.youtube.com/watch?v=HiLh0fGSKlk

INTRO (play twice)
e|-----------------------------------------------------------|
B|-8--8-9-8--7-8----------------8--8-9-8--8------------6-7---|
G|---------------7--6-7-8-7-6-7---------------7--6-7-------7-|
D|-----------------------------------------------------------|
A|-----------------------------------------------------------|
E|-----------------------------------------------------------|

e|-----------------------------------------------------------|
B|-8--8-9-8--7-8----------------8--8-9-8--8------------------|
G|---------------7--6-7-8-7-6-7---------------7--6-7---7-6-7-|
D|-----------------------------------------------------------|
A|-----------------------------------------------------------|
E|-----------------------------------------------------------|

e|-----------------------------------|
B|--------------------6--------------|
G|-6---4-6-7---7-6------7-----5------|
D|-7---5-7-8---8-7--------5-8---8-7--|
A|-----------------------------------|
E|-----------------------------------|

VERSE 1
e|-----------------------------------------------------------|
B|-8--8-9-8--7-8----------------8--8-9-8--8------------6-7---|
G|---------------7--6-7-8-7-6-7---------------7--6-7-------7-|
D|-----------------------------------------------------------|
A|-----------------------------------------------------------|
E|-----------------------------------------------------------|
I love the man with the dancing hand, so he can find us a home again

e|-----------------------------------------------------------|
B|-8--8-9-8--7-8----------------8--8-9-8--8------------------|
G|---------------7--6-7-8-7-6-7---------------7--6-7---7-6-7-|
D|-----------------------------------------------------------|
A|-----------------------------------------------------------|
E|-----------------------------------------------------------|
I love the man with the dancing hand, so he can find us a home again, and

e|-----------------------------------|
B|--------------------6--------------|
G|-6---4-6-7---7-6------7-----5------|
D|-7---5-7-8---8-7--------5-8---8-7--|
A|-----------------------------------|
E|-----------------------------------|
If you want in there, we'll let you into our skin

INTERLUDE
e|-------------------------10----------|\
B|-8--8-9-8--8-7---/11--11----11-10-11-| 2x alone and 2x with vocals
G|-------------------------------------|/
D|-------------------------------------|
A|-------------------------------------|
E|-------------------------------------|
With books of stone and crumbled under cloud
We'll make a dam to make our fathers proud

e|-----------------------------------------------------------|
B|-8--8-9-8--7-8----------------8--8-9-8--8------------------|
G|---------------7--6-7-8-7-6-7---------------7--6-7---7-6-7-|
D|-----------------------------------------------------------|
A|-----------------------------------------------------------|
E|-----------------------------------------------------------|
We'll find scribble lands with the softly shore
Some of them dry and scower for more

e|-----------------------------------|
B|--------------------6--------------|
G|-6---4-6-7---7-6------7-----5------|
D|-7---5-7-8---8-7--------5-8---8-7--|
A|-----------------------------------|
E|-----------------------------------|
And if you want in there we'll let you into our skin

INTERLUDE 
e|-------------------------10----------|\
B|-8--8-9-8--8-7---/11--11----11-10-11-| 2x alone and 2x with vocals
G|-------------------------------------|/
D|-------------------------------------|
A|-------------------------------------|
E|-------------------------------------|
Oh get it all and put your trust in me
We're going to find the lions feast

e|-----------10---------------------10----10-13-15-|
B|---/11--11----11-10-11----/11--11----11----------|
G|-------------------------------------------------|
D|-------------------------------------------------|
A|-------------------------------------------------|
E|-------------------------------------------------|
And no more talk, taking just what you need in gold

e|-15--15-13--13-11--11-10--10-11--11-10--10-----10------------|
B|-------------------------------------------11-----11--10-----|
G|---------------------------------------------------------12--|
D|-------------------------------------------------------------|
A|-------------------------------------------------------------|
E|-------------------------------------------------------------|
If you want to trade this in we'll let you into all our skin
Добавлено: 04.09.2015
Другие материалы по этой песне:
  • Аккорды и текст

Страница создана 04.09.2015
http://primanota.ru/the-growlers/for-skin-chords.htm
Привет, Гость.
Предлагаем пройти революционный курс по гитаре.
Подарок от PrimaNota.Ru, забирай!