PrimaNota.ru - самый крупный в мире бесплатный архив песенных текстов, аккордов, табулатур и нот


The Gray Havens - Far Kingdom - таба, видео

Регистрация Запомнить меня
Войти через:  Facebook Google Twitter Vk Yandex Mail.ru

The Gray Havens - Far Kingdom - таба, видео

Печатать
Просмотров: 54
There may be subtle variations in the chords. Also, verse 3 is pretty hard to hear under all the other 
instruments, but I believe this guitar part is pretty close to correct.

Chords:
  C G D Bm7 Em7
|-0-3-2--2---3-|
|-1-0-3--0---0-|
|-0-0-2--2---0-|
|-2-0-0--1---2-|
|-3-2-x--2---2-|
|-x-3-x--x---0-|

Capo 4

Verse 1&2:                 Coda:                     @Coda:
|---0-0---0-0---3-3---3-3-|---2-2---2-2---3-3---3-3-|---2-2---2-2---2-2---2-2-|
|---1-1---1-1---0-0---0-0-|---3-3---0-0---0-0---0-0-|---3-3---3-3---3-3---3-3-|
|-------------------------|-------------------------|-------------------------|
|-------------------------|-0-----1-----2-----2-----|-0-----0-----0-----0-----|
|-3-----3-----------------|-------------------------|-------------------------|
|-------------3-----3-----|-------------------------|-------------------------|

Verse 3:                   Coda:                     @Coda:
|-------------------------|-----------2-------3-----|-------3-----------3-----|
|-------1-----------0-----|-----3-----------0---0---|-----2---2-------2---2---|
|-----0---0-------0---0---|---2-----2-----0-------0-|---3-------3---3-------3-|
|---2-------2---0-------0-|-0-----1-----2-----------|-0-----------0-----------|
|-3-----------------------|-------------------------|-------------------------|
|-------------3-----------|-------------------------|-------------------------|

Verse 1:
There is a far kingdom a ways from here 
Beyond the storm and the sea 
There will be no need of darkness and none for tears 
When that far kingdom I see 

Chorus:
          C             G      D    Bm7     Em7
There's a river we will know ever clear and ever full 
         C              G                         D
From the fount that overflows in the light of the King 
            C                G              D         Bm7             Em7
And when we drink it we will find that this joy, ever full, will ever rise 
          C               G               D
And it'll rise on, in the kingdom, in the kingdom 

Verse 2:
There is a far kingdom on the other side of the glass 
And by a faint light we see 
Still there is more gladness longing for the sight 
Than to behold or be filled, by anything 

[Chorus]

Verse 3:
There is a far, far kingdom there at the end of the sea 
Where they know my name 
And until that far, far kingdom calls me home 
Oh, my soul, I will wait 

[Chorus]
Добавлено: 29.04.2016
Другие материалы по этой песне:
  • Аккорды и текст

Страница создана 29.04.2016
http://primanota.ru/the-gray-havens/far-kingdom-chords.htm
Привет, Гость.
Предлагаем пройти революционный курс по гитаре.
Подарок от PrimaNota.Ru, забирай!