PrimaNota.ru - самый крупный в мире бесплатный архив песенных текстов, аккордов, табулатур и нот


The Grates - Howl - текст песни, таба, видео

Регистрация Запомнить меня
Войти через:  Facebook Google Twitter Vk Yandex Mail.ru

The Grates - Howl - текст песни, таба, видео

Печатать
Просмотров: 187
-------------------------------------------------------------------------------
                             Howl - The Grates
-------------------------------------------------------------------------------
Tabbed by: GRIFFDOG
Email: tomgpowers@hotmail.com

Well this is my first tab. Hope you like!
I love The Grates, I'm from brizzy and good to see some local bands making 
it!!!!!!
*cough* i actually know these guys!!
well enjoy this tab
sounds great!



Tuning: Standard

 Intro:                                                                   x2
e|------------------------------||------------------------------------------||
B|------------------------------||------------------------------------------||
G|------------------------------||-------7----6/9-9----5--------------------||
D|---7-9-7---7-9-7---7-99999999-||-9-----7-x8-6/9-9-x3-5-x-8----------------||
A|---7-9-7---7-9-7---7-99999999-||-9-x8--5----4/7-7----3--------------------||
E|---5-7-5---5-7-5---5-77777777-||-7----------------------------------------||

 Verse: (light crunchy sound)
e|---------------------------------------------------------------------------|
B|---------------------------------------------------------------------------|
G|---------7-----6/9-9----5--------------------------------------------------|x2
D|---9-----7-x8--6/9-9x3--5-x8-----------------------------------------------| 
A|---9-x8--5-----4/7-7----3--------------------------------------------------|
E|---7-----------------------------------------------------------------------|

 Pre-Chorus:  (heavy distortion)
e|---------------------------------------------------------------------------|
B|---------------------------------------------------------------------------|
G|---------------------------------------------------------------------------|
D|---7-9-7---7-9-7---7-9-7----7-9-7----7-9-7---7-9-7----799999999------------|
A|---7-9-7---7-9-7---7-9-7----7-9-7----7-9-7---7-9-7----799999999------------|
E|---5-7-5---5-7-5---5-7-5----5-7-5----5-7-5---5-7-5----577777777------------|

 Verse: (light crunchy sound)
e|---------------------------------------------------------------------------|
B|---------------------------------------------------------------------------|
G|---------7-----6/9-9----5--------------------------------------------------|x2
D|---9-----7-x8--6/9-9x3--5-x8-----------------------------------------------| 
A|---9-x8--5-----4/7-7----3--------------------------------------------------|
E|---7-----------------------------------------------------------------------|

 Bridge: (heavy Distortion)
e|---------------------------------------------------------------------------|
B|---------------------------------------------------------------------------|
G|---------7-----6/9-9----5--------------------------------------------------|x2
D|---9-----7-x8--6/9-9x3--5-x8-----------------------------------------------| 
A|---9-x8--5-----4/7-7----3--------------------------------------------------|
E|---7-----------------------------------------------------------------------|

 Pre-Chorus: (heavy distortion)
e|---------------------------------------------------------------------------|
B|---------------------------------------------------------------------------|
G|---------------------------------------------------------------------------|
D|---7-9-7---7-9-7---7-9-7----7-9-7----7-9-7---7-9-7----799999999------------|
A|---7-9-7---7-9-7---7-9-7----7-9-7----7-9-7---7-9-7----799999999------------|
E|---5-7-5---5-7-5---5-7-5----5-7-5----5-7-5---5-7-5----577777777------------|

 Chorus: (first for times; light distortion)(next four times; heavy distortion)
e|---------------------------------------------------------------------------|
B|---------------------------------------------------------------------------|
G|--------7--9-9--5-5--------------------------------------------------------|x8 
D|---9-9--7--9-9--5-5--------------------------------------------------------| 
A|---9-9--5--7-7--3-3--------------------------------------------------------|
E|---7-7---------------------------------------------------------------------|

 Bridge: (heavy distortion)
e|---------------------------------------------------------------------------|
B|---------------------------------------------------------------------------|
G|---------------------------------------------------------------------------|
D|---7-9-7---7-9-7---7-9-7----7-9-7----7-9-7---7-9-7----799999999------------|
A|---7-9-7---7-9-7---7-9-7----7-9-7----7-9-7---7-9-7----799999999------------|
E|---5-7-5---5-7-5---5-7-5----5-7-5----5-7-5---5-7-5----577777777------------|


 2nd Chorus: As pae sings "howl for you" again (heavy Distortion)
e|---------------------------------------------------------------------------|
B|---------------------------------------------------------------------------|
G|---------7-----6/9-9----5--------------------------------------------------|x4
D|---9-----7-x8--6/9-9x3--5-x8-----------------------------------------------| 
A|---9-x8--5-----4/7-7----3--------------------------------------------------|
E|---7-----------------------------------------------------------------------|


Bridge: (heavy distortion)
e|---------------------------------------------------------------------------|
B|---------------------------------------------------------------------------|
G|---------------------------------------------------------------------------|
D|---7-9-7---7-9-7---7-9-7----7-9-7----7-9-7---7-9-7----799999999------------|
A|---7-9-7---7-9-7---7-9-7----7-9-7----7-9-7---7-9-7----799999999------------|
E|---5-7-5---5-7-5---5-7-5----5-7-5----5-7-5---5-7-5----577777777------------|

 Outro: (heavy distortion; lots of feedback on held chords :D)
e|---------------------------------------------------------------------------|
B|-------------7~~--7-7--6~~--6-6--7~~--7-7--6~~---6-6---7~~~~---------------|
G|---7~~--7-7--7~~--7-7--7~~--7-7--7~~--7-7--7~~---7-7---7~~~~---------------|
D|---7~~--7-7--7~~--7-7--7~~--7-7--7~~--7-7--7~~---7-7---7~~~~---------------|
A|---5~~--5-5--5~~--5-5--5~~--5-5--5~~--5-5--5~~---5-5---5~~~~---------------|
E|---------------------------------------------------------------------------|
   On the chords with '~' marked. Let ring with feedback



Email me if you wanna discuss some music :D

| /  slide up
| \  slide down
| h  hammer-on
| p  pull-off
| ~  vibrato
| +  harmonic
| x  Mute note
===============================================================================
Добавлено: 25.04.2012
Другие материалы по этой песне:
  • Аккорды и текст

Страница создана 25.04.2012
http://primanota.ru/the-grates/howl-chords.htm
Привет, Гость.
Предлагаем пройти революционный курс по гитаре.
Подарок от PrimaNota.Ru, забирай!