PrimaNota.ru - самый крупный в мире бесплатный архив песенных текстов, аккордов, табулатур и нот


The Grates - 19 20 20 - текст песни, таба, видео

Регистрация Запомнить меня
Войти через:  Facebook Google Twitter Vk Yandex Mail.ru

The Grates - 19 20 20 - текст песни, таба, видео

Печатать
Просмотров: 176
The Grates - 19 20 20
Album - Gravity Wont Get You High
www.thegrates.com


Intro
E------------------------|------------------------|-----------------|
B--4-4-4--6-6--x-x-x-x-x-|--4-4-4--6-6--x-x-x--11-|--6-6--x-x-x-x-x-|
G------------------------|---------------------11-|-----------------|
D--4-4-4--6-6--x-x-x-x-x-|--4-4-4--6-6--x-x-x--11-|--6-6--x-x-x-x-x-|
A--2-2-2--4-4--x-x-x-x-x-|--2-2-2--4-4--x-x-x--9--|--4-4--x-x-x-x-x-|
E------------------------|------------------------|-----------------|


E-------------------------|
B-4-4-4--6-6--x-x-x-x-x-11|
G-------------------------|
D-4-4-4--6-6--x-x-x-x-x-11|
A-2-2-2--4-4--x-x-x-x-x-9-|
E-------------------------|

VERSE
C#   B        G#                F#
My babys off, Yeah, he's shooting tigers 
C#   B        G#                F#
My baby, Hes Such a fucking liar 
C#   B        G#                F#
My baby, oh yeah 

C# 
19-20-20   19-20 -20 

C#   B        G#                F#
My baby, oh yeah hes leaving town 
C#   B        G#                F#
My baby dont want me around
C#   B        G#    F#
My baby, huh huh 

LONGER CHORUS.
C#		E		F# 
19-20-20 19-20-20 19-20-20 19-20-20 19-20-20 19-20-20 19-20-20
C#		E		F# 
19-20-20 19-20-20 19-20-20 19-20-20 19-20-20 19-20-20 19-20-20 

BRIDGE
 B     E     A     D   D   C#   C 


B	E	         A	         D    D   C#   C|  
I think i found you in an unknown location 

B	E	         A	   G#   G      F# 
I think i left you in a strange position


I THINK THATS THE WHOLE LOT..JUST PUT IT ALL TOGETHER!
CHEERS.


Добавлено: 05.07.2012
Другие материалы по этой песне:
  • Аккорды и текст

Страница создана 10.04.2012
http://primanota.ru/the-grates/19-20-20-chords.htm
Привет, Гость.
Предлагаем пройти революционный курс по гитаре.
Подарок от PrimaNota.Ru, забирай!