PrimaNota.ru - самый крупный в мире бесплатный архив песенных текстов, аккордов, табулатур и нот


The Go-gos - He's so Strange - текст песни, таба, видео

Регистрация Запомнить меня
Войти через:  Facebook Google Twitter Vk Yandex Mail.ru

The Go-gos - He's so Strange - текст песни, таба, видео

Печатать
Просмотров: 132
Авторы музыки: Glen Curtis, Charlotte Caffey, Leonard Graves Phillips
Авторы текста: Jane Wiedlin
Song: He's G Strange
Artist: Go-Go's
Album: Beyond the Valley of the Go-Go's


Main pattern:
E|----------------------------
B|----------------------------
G|----------------------------
D|----------------------------
A|--44-44--44-44--22-22--22-22
E|2---2--5---5--4---4--3---3--


Solo part 1:
E|---------------------------------------------------------------------
B|---------------------------------------------------------------------
G|---------------------------------------------------------------------
D|---------------------------------------------------------------------
A|--2320--2320--2320--2320--23200-2320--232022222-23200-2320--232022222
E|2-----2-----2-----2-----2-----------4----------2----------4----------

Solo part 2:
E|--------------------------------------------------------------------
B|--------------------------------------------------------------------
G|--------------------------------------------------------------------
D|4-----4/6-----6/7-----7/9-----9\4-----4/6-----6/7-----7/9-----12\16/
A|--------------------------------------------------------------------
E|--------------------------------------------------------------------


And the rest of the song is played in
what I think are F barre chords like:

EADGBE
244322

(in various positions)

Since I'm only just learning the guitar,
this may be wholly inaccurate, incomprehensible gibberish.

- Mike Simpson (br41n14c at yahoo dot com).
     
Добавлено: 16.07.2013
Другие материалы по этой песне:
  • Аккорды и текст

Страница создана 14.04.2012
http://primanota.ru/the-go-gos/hes-so-strange-chords.htm
Привет, Гость.
Предлагаем пройти революционный курс по гитаре.
Подарок от PrimaNota.Ru, забирай!