PrimaNota.ru - самый крупный в мире бесплатный архив песенных текстов, аккордов, табулатур и нот


The Glorious Unseen - Tonight The Stars Speak - аккорды и текст, таба, видео

Регистрация Запомнить меня
Войти через:  Facebook Google Twitter Vk Yandex Mail.ru

The Glorious Unseen - Tonight The Stars Speak - аккорды и текст, таба, видео

Печатать
Просмотров: 95
Уроки эстрадного вокала в Санкт-Петербурге
Tonight The Stars Speak
The Glorious Unseen
----------------------------------------------------------------------------
                             Tonight the Stars Speak - The Glorious Unseen
----------------------------------------------------------------------------
Tabbed by: marino13
Email: jbomb1000@yahoo.com

Tuning:Standard

This is a great song by a great band. I'm sure this is right but if you think it isn't
me know. Hope you enjoy!


Intro x3 then played for verses
e|------0-------0----------0--|
B|--------0-------0------0----|
G|----------------------------|
D|----6--------4-------2------|
A|--4--------2-------0--------|
E|----------------------------|

(Verse 1)
              C#m               B          A
Tonight the stars speak of Your infinite love
                     C#m     B          A
And it serves to remind me
            C#m        B          A
That what I have means nothing at all
                C#m         B          E
Compared to your glory, Oh Lord

(Chorus)
E        B              C#m                 A
     How long till Your voice speaks clearly?
E        B              C#m            A
     How long till Your arms envelope me?
E       B         C#m                 A
     I cry be my strength when I am weak
E       B         C#m          A
     Oh Lord have mercy on me please


(Verse 2)
My spirit is willing but my flesh is so weak
I cry in Your arms now
God grant me the strength to rest in You
I lift my hands and cry

Break:  E     B     C#m     A

Order:
Verse 1
Chorus
Verse 2
Chorus
Break (3x)
Chrous


Added May 16, 2009
So The Glorious Unseen released a new ep with an acoustic version of this song.  It is 
much the same but there is another guitar picking stuff too i think and it is as follows:

e|------0-------0----------0--|
B|--------0-------0------0----|
G|----------------------------|
D|----2--------4-------2------|
A|--4--------2-------0--------|
E|----------------------------|

That is just played behind or it sounds good if you would rather play it.  There is 
being played a little bit higher but im not sure what it is. Oh and the chords that can go 
the new lead part are

e|----------------------------|
B|----------------------------|
G|--4----------4-------4------|
D|--2----------4-------2------|
A|--4--------2----------------|
E|----------------------------|

those are just variations of the c#m and the A, and i also play the E like:

e|----------------------------|
B|----------------------------|
G|--4-------------------------|
D|--2-------------------------|
A|--2-------------------------|
E|----------------------------|

thats just a variation if you would like.
Добавлено: 08.06.2012
Другие материалы по этой песне:

Страница создана 08.06.2012
http://primanota.ru/the-glorious-unseen/tonight-the-stars-speak-chords.htm
Привет, Гость.
Предлагаем пройти революционный курс по гитаре.
Подарок от PrimaNota.Ru, забирай!