PrimaNota.ru - самый крупный в мире бесплатный архив песенных текстов, аккордов, табулатур и нот


The Glitch Mob - Cant Kill Us - таба, видео

Регистрация Запомнить меня
Войти через:  Facebook Google Twitter Vk Yandex Mail.ru

The Glitch Mob - Cant Kill Us - таба, видео

Печатать
Просмотров: 48
-------------------------------------------------------------------------------
                             SONG NAME - Glitch Mob
-------------------------------------------------------------------------------
Tabbed by:BradleyCraig
E-mail:Why should I give you my email 

Tuning:standard 

Background music 
e|----------------------------------------------------------------------------------|
B|----------------------------------------------------------------------------------|
G|----------------------------------------------------------------------------------|
D|----------------------------------------------------------------------------------|
A|----------------------------------------------------------------------------------|
E|-0--0-0--0-0--0-0-0-0--3----------------------------------------------------------|repeat through song
After 3 repeats
e|---------------------------------------------------------------------------|
B|--------------------5------------------------------------------------------|
G|--0--0--0--0-----4--------------------------0------------------------------|
D|--------------2--------------------------------2---------------------------|repeat twice
A|---------------------------------------------------------------------------|
E|---------------------------------------------------------------------------|

e|---------------------------------------------------------------------------|
B|--------5------------------------------------------------------------------|
G|----4--------2--0---2--0---4-----------------------------------------------|repeat twice
D|------------------------------2--------------------------------------------|
A|---------------------------------------------------------------------------|
E|---------------------------------------------------------------------------|



************************************

| /   slide up
| \   slide down
| h   hammer-on
| p   pull-off
| ~   vibrato
| +   harmonic
| x   Mute note
| b   Bend
| pb  Pre-bend
| br  Bend release
| pbr Pre-bend release
| brb Bend release bend

************************************
Добавлено: 01.05.2016
Другие материалы по этой песне:
  • Аккорды и текст

Страница создана 30.04.2016
http://primanota.ru/the-glitch-mob/cant-kill-us-chords.htm
Привет, Гость.
Предлагаем пройти революционный курс по гитаре.
Подарок от PrimaNota.Ru, забирай!