PrimaNota.ru - самый крупный в мире бесплатный архив песенных текстов, аккордов, табулатур и нот


The Ghost Of A Thousand - New Toy - таба, видео

Регистрация Запомнить меня
Войти через:  Facebook Google Twitter Vk Yandex Mail.ru

The Ghost Of A Thousand - New Toy - таба, видео

Печатать
Просмотров: 85
Song:New Toy
Band:The Ghost Of A Thousand
Album:This Is Where The Fight Begins
Tabbed by:Duncan S/reelbigfish432

This should be the first TGOAT tab on this site, possibly ever, which is pretty bad 
how awesome they are. 2 guitarists, Drop D, that's all!

Tab Legend:
. under a noe or chord - palm mute
p - pull off
x - muted string

[Update]
Just added on a few palm mutes I missed out, and changed one wrong note.

Intro/Verse:
Both Guitars
E|--------------------------|
B|--------------------------|
G|--------------------------|
D|-2-2-2-2-2-2-2-----2-2----|x5
A|-2-2-2-----2-2-3-3-2-2-5--|
D|-2-2-2-----2-2-----2-2----|

E|--------------------------------|
B|--------------------------------|
G|--------------------------------|
D|-2-2-2-2-2--2-2--2-2-0-2-0------|
A|-2-2-2------2-2--2-2-0-2-0------|
D|-2-2-2------2-2--2-2-0-2-0--4-5-|

Chorus:
Guitar 1
E|-------------------------------------|
B|-------------------------------------|
G|-5555555555555555--------------------|
D|-------------------------------------|
A|-3333333333333333--------------------|
D|------------------222222222-4444-555-|
 |                                     |
Guitar 2                               |
E|-------------------------------------|
B|-------------------------------------|
G|-55555555----------------------------|
D|-------------------------------------|
A|-33333333----------------------------|
D|---------00000000-222222222-4444-555-|

Guitar 1
E|-----------------------------------|
B|-----------------------------------|
G|-5555555555555555------------------|
D|------------------2-2-2-2-2-2-25-0-|
A|-3333333333333333-2-2-2-2-2-2-25-0-|
D|------------------2-2-2-2-2-2-25-0-|
 |                                   |
Guitar 2                             |
E|-----------------------------------|
B|-----------------------------------|
G|-55555555--------------------------|
D|------------------2-2-2-2-2-2-25-0-|
A|-33333333---------2-2-2-2-2-2-25-0-|
D|---------00000000-2-2-2-2-2-2-25-0-|

Guitar 1
E|-------------------|
B|-------------------|
G|-55555555----------|
D|-------------------|
A|-33333333-00000000-|
D|----------00000000-|
 |          ........ |
Guitar 2             |
E|-------------------|
B|-------------------|
G|-55555555----------|
D|-------------------|
A|-33333333-00000000-|
D|----------00000000-|
            ........

Post Chorus:
note:spacing isn't perfect but hey!
Guitar 1
E|----------------------------------------------|
B|-------12----------------------12----------12-|
G|-11-11----11-11-11-12-11-11-11----11-12p11----|
D|----------------------------------------------|
A|----------------------------------------------|
D|----------------------------------------------|
 |                                              |
Guitar 2                                        |x2
E|----------------------------------------------|
B|----------------------------------------------|
G|----------------------------------------------|
D|-2--2--2--2--2--2--2-------2--2---------------|
A|-2--2--2--------2--2--3--3-2--2--5------------|
D|-2--2--2--------2--2-------2--2---------------|

Verse 2:
Both Guitars
E|--------------------------|
B|--------------------------|
G|--------------------------|
D|-2-2-2-2-2-2-2-----2-2----|x4
A|-2-2-2-----2-2-3-3-2-2-5--|
D|-2-2-2-----2-2-----2-2----|

Then another chorus, which ends with this after the palm mutes:

Both Guitars
E|---|
B|---|
G|---|
D|---|
A|-2-|
D|-2-|

Then:

Bridge:
Guitar 1
E|---------------------------------|
B|---------------------------------|
G|---------------------------------|
D|-------2-2-2---------------------|x4
A|---------------------3-3-----5-5-|
D|-2-2-2-------2-2-2-2-----2-2-----|
   . . . . . . . . . . . . . . . .

Then:
Guitar 1
E|---------------------------------|
B|---------------------------------|
G|---------------------------------|
D|-------2-2-2---------------------|
A|---------------------3-3-----5-5-|
D|-2-2-2-------2-2-2-2-----2-2-----|
 | . . . . . . . . . . . . . . . . |
Guitar 2                           |x4
E|---------------------------------|
B|---------------------------------|
G|---------------------------------|
D|---------------------------------|
A|-2---2------2------2---2------2--|
D|-2---2------2------2---2------2--|
   .   .      .      .   .      .

Then a chorus
Then another chorus but instead of

Guitar 1
E|-----------------------------------|
B|-----------------------------------|
G|-5555555555555555------------------|
D|------------------2-2-2-2-2-2-25-0-|
A|-3333333333333333-2-2-2-2-2-2-25-0-|
D|------------------2-2-2-2-2-2-25-0-|
 |                                   |
Guitar 2                             |
E|-----------------------------------|
B|-----------------------------------|
G|-55555555--------------------------|
D|------------------2-2-2-2-2-2-25-0-|
A|-33333333---------2-2-2-2-2-2-25-0-|
D|---------00000000-2-2-2-2-2-2-25-0-|

Play:

Guitar 1
E|---------------------------------------|
B|---------------------------------------|
G|-5555555555555555----------------------|
D|------------------2-2-0-2--2-2-2-2-5-0-|
A|-3333333333333333-2-2-0-2--2-2-2-2-5-0-|
D|------------------2-2-0-2--2-2-2-2-5-0-|
 |                                       |
Guitar 2                                 |
E|---------------------------------------|
B|---------------------------------------|
G|-55555555------------------------------|
D|------------------2-2-0-2--2-2-2-2-5-0-|
A|-33333333---------2-2-0-2--2-2-2-2-5-0-|
D|---------00000000-2-2-0-2--2-2-2-2-5-0-|

After that 2nd chorus, play the post chorus riff 6 times, then:

Outro:
Guitar 1
E|------------------|
B|------------------|
G|-5555555555555555-|
D|------------------|
A|-3333333333333333-|
D|------------------|

Both Guitars
E|-----------------------|
B|-----------------------|
G|-----------------------|
D|-2-2-0-2--2-2-2-2-5-0--|
A|-2-2-0-2--2-2-2-2-5-0--|
D|-2-2-0-2--2-2-2-2-5-0--|

E|------------------------|
B|------------------------|
G|------------------------|
D|-2-2-0-2-x-2-2-2-2-5-0--|x3
A|-2-2-0-2-x-2-2-2-2-5-0--|
D|-2-2-0-2-x-2-2-2-2-5-0--|

The End!
Добавлено: 09.04.2012
Другие материалы по этой песне:

Страница создана 09.04.2012
http://primanota.ru/the-ghost-of-a-thousand/new-toy-chords.htm
Привет, Гость.
Предлагаем пройти революционный курс по гитаре.
Подарок от PrimaNota.Ru, забирай!