PrimaNota.ru - самый крупный в мире бесплатный архив песенных текстов, аккордов, табулатур и нот


The Ghost Of A Saber Tooth Tiger - Schroedingers Cat - таба, видео

Регистрация Запомнить меня
Войти через:  Facebook Google Twitter Vk Yandex Mail.ru

The Ghost Of A Saber Tooth Tiger - Schroedingers Cat - таба, видео

Печатать
Просмотров: 105
Artist:         Ghost of a Saber Tooth Tiger
Song:           Shroedinger's Cat
Album:          Acoustic Sessions (2010)
Tabbed by:      Toast_in_the_Myst

Intro:

e||----0--------0--|    ||----0--------0--|
B||------5----5----|    ||------5----5----|
G||---------5------|    ||---------4------|
D||----------------|    ||----------------|
A||----------------|    ||----------------|
E||--5-------------|x2  ||--3-------------|x2

e||----0--------0--|    ||----0--------0--|     ||----0--------0--|
B||------6----6----|    ||-------5---5----|     ||-------5---5----|
G||---------5------|    ||---------5------|     ||---------3------|
D||----------------|    ||----------------|     ||----------------|
A||--5-------------|    ||--4-------------|     ||--4-------------|
E||----------------|x2  ||----------------|x2   ||----------------|x2

Verse:

e||----0-------0-|      ||----0-------0-|
B||------5---5---|      ||------5---5---|
G||--------5-----|      ||--------4-----|
D||--------------|      ||--------------|
A||--------------|      ||--------------|
E||--5-----------|x2    ||--3-----------|x2

e||----0-------0-|      ||----0-------0-|
B||------6---6---|      ||------5---5---|
G||--------5-----|      ||--------3-----|
D||--------------|      ||--------------|
A||--5-----------|      ||--4-----------|
E||--------------|x2    ||--------------|x2

e||----0-------0-|      ||----0-------0-|
B||------5---5---|      ||------5---5---|
G||--------5-----|      ||--------4-----|
D||--------------|      ||--------------|
A||--------------|      ||--------------|
E||--5-----------|x2    ||--3-----------|x2

e||----0-------0-|      ||----0-------0-||      ||----2-------2-|
B||------6---6---|      ||------5---5---||      ||------4---4---|
G||--------5-----|      ||--------3-----||      ||--------2-----|
D||--------------|      ||--------------||      ||--------------|
A||--5-----------|      ||--4-----------||      ||--------------|
E||--------------|x2    ||--------------||      ||--2-----------|x4

Pre Chorus

e||----2-------2-|      ||----1-------1---1-------1-||          ||----2-------2---2-------2-||
B||------4---4---|      ||------3---3-------3---3---||          ||------2---2-------2---2---||
G||--------2-----|      ||--------2-----------2-----||          ||--------2-----------2-----||
D||--------------|      ||--------------------------||          ||--------------------------||
A||--------------|      ||--------------1-----------||          ||--------------4-----------||
E||--2-----------|x2    ||--1-----------------------||x2        ||--2-----------------------||x2

Chorus

e||------------------||------------------||------------------||------------------||
B||--2---2---2---2---||--2---2---2---2---||--1---1---1---1---||--4---4---4---4---||
G||--2---2---2---2---||--2---2---2---2---||--2---2---2---2---||--5---5---5---5---||
D||--4---4---4---4---||--2---2---2---2---||--3---3---3---3---||--6---6---6---6---||
A||------------------||--0---0---0---0---||------------------||------------------||
E||--2---2---2---2---||------------------||--1---1---1---1---||--4---4---4---4---||

e||------------------||------------------||------------------||------------------||
B||--2---2---2---2---||--2---2---2---2---||--4---4---4---4---||----3--3--3-------||
G||--2---2---2---2---||--2---2---2---2---||--2---2---2---2---||----2--2--2-------||
D||--4---4---4---4---||--2---2---2---2---||--4---4---4---4---||----3--3--3-------||
A||------------------||--0---0---0---0---||------------------||------------------||
E||--2---2---2---2---||------------------||--2---2---2---2---||----1--1--1-------||

End

e||--8---------------||
B||--5---------------||
G||--5---------------||
D||--7---------------||
A||--7---------------||
E||--5---------------||
Добавлено: 24.12.2015
Вам также может быть интересно:
Другие материалы по этой песне:
  • Аккорды и текст

Страница создана 24.12.2015
http://primanota.ru/the-ghost-of-a-saber-tooth-tiger/schroedingers-cat-chords.htm
Привет, Гость.
Предлагаем пройти революционный курс по гитаре.
Подарок от PrimaNota.Ru, забирай!