PrimaNota.ru - самый крупный в мире бесплатный архив песенных текстов, аккордов, табулатур и нот


The Ghost Inside - Downbeat - бас-таба, видео

Регистрация Запомнить меня
Войти через:  Facebook Google Twitter Vk Yandex Mail.ru

The Ghost Inside - Downbeat - бас-таба, видео

Печатать
Просмотров: 84
Уроки эстрадного вокала в Санкт-Петербурге
Bass

Legend
L - tied note
x - dead note
h - hammer on/pull off
b - bend
s - slide
~ - vibrato
g - ghost note
> - accentuated note
t - trill
M - palm mute
. - staccato
P - popping (bass)
S - slapping (bass)
+ - tapping
W - wide vibrato
< - fade in
w - whammy bar
= - tremolo picking
v - brush up
^ - brush down
V - pick stroke up
n - pick stroke down

Tuning Drop A# (A# F A# D#)


Intro
D#|----------------------------------------------------|----------------|
A#|----------------------------------------------------|----------------|
F |----------------------------------------------------|----------------|
A#|--0M-0M-0M------------------------------------------|----------------|

        Verse
-------|----------------------------------------------------|
-------|----------------------------------------------------|
-------|--x-----------10-10-10----------8--8--8--8--7--8----|
--0----|-----8--8--8-----------10-10-10---------------------|


----------------------------------------------------|
----------------------------------------------------|
----------------------------------------------------|
--0M-0M-0M----------0M-0M-0M------------------------|


----------------------------------------------------|
----------------------------------------------------|
----------------------------------------------------|
--0M-0M-0M----------0M-0M-0M------------------------|


----------------------------------------------------|
----------------------------------------------------|
----------------------------------------------------|
--0M-0M-0M----------0M-0M-0M------------------------|


----------------------------------------------------|
----------------------------------------------------|
--x-----------10-10-10----------8--8--8--8--7--8----|
-----8--8--8-----------10-10-10---------------------|


----------------------------------------------------|
-----------7--7--7-----------8--8--8-----5--5--5----|
-----------8--8--8-----------10-10-10----7--7--7----|
--0M-0M-0M----------0M-0M-0M----------0M------------|


----------------------------------------------------|
-----------7--7--7-----------8--8--8-----10-10-10---|
-----------8--8--8-----------10-10-10----12-12-12---|
--0M-0M-0M----------0M-0M-0M----------0M------------|


----------------------------------------------------|
-----------7--7--7-----------8--8--8-----5--5--5----|
-----------8--8--8-----------10-10-10----7--7--7----|
--0M-0M-0M----------0M-0M-0M----------0M------------|


----------------------------------------------------|
----------------------------------------------------|
--x-----------10-10-10----------8--8--8--8--7--8----|
-----8--8--8-----------10-10-10---------------------|

Pre-Chorus
----------------------------------------------------|
----------------------------------------------------|
----------------------------------------------------|
--0--0-----0-----0-----0--0--0-----0-----0-----0----|


----------------------------------------------------|
----------------------------------------------------|
----------------------------------------------------|
--8--8-----8-----8-----8--8--8-----8-----8-----8----|


----------------------------------------------------|
----------------------------------------------------|
----------------------------------------------------|
--3--3-----3-----3-----3--3--3-----3-----3-----3----|


----------------------------------------------------|
----------------------------------------------------|
----------------------------------------------------|
--8--8-----8-----8-----8--10-10----10----10----10---|


----------------------------------------------------|
----------------------------------------------------|
----------------------------------------------------|
--0--0-----0-----0-----0--0--0-----0-----0-----0----|


----------------------------------------------------|
----------------------------------------------------|
----------------------------------------------------|
--8--8-----8-----8-----8--8--8-----8-----8-----8----|


----------------------------------------------------|
----------------------------------------------------|
----------------------------------------------------|
--3--3-----3-----3-----3--3--3-----3-----3-----3----|


----------------------------------------------------|
----------------------------------------------------|
----------------------------------------------------|
--8--8-----8-----8-----8--10-10----10----10----10---|

Chorus
----------------------------------------------------|
----------------------------------------------------|
----------------------------------------------------|
--0--0--0--0--0--0--0--0--0--0--0--0--0--0--0--0----|


----------------------------------------------------|
----------------------------------------------------|
----------------------------------------------------|
--8--8--8--8--8--8--8--8--8--8--8--8--8--8--8--8----|


----------------------------------------------------|
----------------------------------------------------|
----------------------------------------------------|
--0--0--0--0--0--0--0--0--0--0--0--0--0--0--0--0----|


----------------------------------------------------|
----------------------------------------------------|
----------------------------------------------------|
--8--8--8--8--8--8--8--8--8--8--8--8--8--8--8--8----|


----------------------------------------------------|
----------------------------------------------------|
----------------------------------------------------|
--0--0--0--0--0--0--0--0--0--0--0--0--0--0--0--0----|


----------------------------------------------------|
----------------------------------------------------|
----------------------------------------------------|
--8--8--8--8--8--8--8--8--8--8--8--8--8--8--8--8----|


----------------------------------------------------|
----------------------------------------------------|
----------------------------------------------------|
--0--0--0--0--0--0--0--0--0--0--0--0--0--0--0--0----|


----------------------------------------------------|
----------------------------------------------------|
----------------------------------------------------|
--8--8--8--8--8--8--8--8--8--8--8--8--8--8--8--8----|

Verse (Same as the first verse so just play that again)


Bridge
|-------|-------|
|-------|-------|
|-------|-------|
|--0L---|--0----|


----------------------------------------------------|
----------------------------------------------------|
----------------------------------------------------|
--0L-0--0M-0M-0M-0M-0M-0M----0M-0M------------------|


----------------------------------------------------|
----------------------------------------------------|
----------------------------------------------------|
--------------------------------0M-0M-0M-0M-1L-1----|

Breakdown
----------------------------------------------------|
----------------------------------------------------|
----------------------------------------------------|
--0L-0--0M-0M-0M-0M-0M-0M----0M-0M------------------|


----------------------------------------------------|
----------------------------------------------------|
----------------------------------------------------|
--------0M-0M-0M-0M-------------0M-0M-0M-0M-1L-1----|


----------------------------------------------------|
----------------------------------------------------|
----------------------------------------------------|
--0L-0--0M-0M-0M-0M-0M-0M----0M-0M------------------|


----------------------------------------------------|
----------------------------------------------------|
----------------------------------------------------|
--------0M-0M-0M-0M-------------0M-0M-0M-0M-1L-1----|


----------------------------------------------------|
----------------------------------------------------|
----------------------------------------------------|
--1L-1--1M-1M-1M-1M-1M-1M-1--1M-1L-1L-1L-1L-1L-1L---|


----------------------------------------------------|
----------------------------------------------------|
----------------------------------------------------|
--1M-0M-0M-0M-0M-0M-------------0M-0M-0M-0M-1L-1----|


----------------------------------------------------|
----------------------------------------------------|
----------------------------------------------------|
--1L-1--1M-1M-1M-1M-1M-1M-1--1M-1L-1L-1L-1L-1L-1L---|


----------------------------------------------------|
----------------------------------------------------|
----------------------------------------------------|
--1M-0M-0M-0M-0M-0M-------------0M-0M-0M-0M-1L-1----|

Pre-Chorus (Same as the first Pre-Chorus so just play that again)




Chorus (Same as the first Chorus so just play that again)



Breakoff
----------------------------------------------------|
----------------------------------------------------|
----------------------------------------------------|
--0--0--0--0--0--0--0--0--0--0--0--0--0--0--0--0----|


----------------------------------------------------|
----------------------------------------------------|
----------------------------------------------------|
--8--8--8--8--8--8--8--8--8--8--8--8--8--8--8--8----|

Verse (Same as the first Verse so just play that again)


Outro
|-------||
|-------||
|-------||
|--0----||



Hope this is right :) otherwise Enjoy
Добавлено: 10.07.2013
Другие материалы по этой песне:

Страница создана 10.06.2012
http://primanota.ru/the-ghost-inside/downbeat-chords.htm
Привет, Гость.
Предлагаем пройти революционный курс по гитаре.
Подарок от PrimaNota.Ru, забирай!