PrimaNota.ru - самый крупный в мире бесплатный архив песенных текстов, аккордов, табулатур и нот


The Ghost Inside - Dear Youth Day 52 - таба, видео

Регистрация Запомнить меня
Войти через:  Facebook Google Twitter Vk Yandex Mail.ru

The Ghost Inside - Dear Youth Day 52 - таба, видео

Печатать
Просмотров: 122
C |--------18-17-------13-15-17-12-13-15-------18-17-------13-15-13-17-12-13-      
G |--15----------15----------------------15----------15----------------------
D#|-----14----------14----------------------14----------14-------------------
A#|--------------------------------------------------------------------------
F |--------------------------------------------------------------------------
A#|--------------------------------------------------------------------------


C |--------18-17-------13-15-17-12-13-15-------18-17--------12~~~~~~~~~~~~~~~                     
G |--15----------15----------------------15----------15----------------------
D#|-----14----------14----------------------14----------14-------------------
A#|--------------------------------------------------------------------------
F |--------------------------------------------------------------------------
A#|--------------------------------------------------------------------------



C |--------18-17-------13-15-17-12-13-15-------18-17-------13-15-13-17-12-13-      
G |--15----------15----------------------15----------15----------------------
D#|-----14----------14----------------------14----------14-------------------
A#|--------------------------------------------------------------------------
F |--------------------------------------------------------------------------
A#|-----------------------repeat 6x (then 2x while reducing in tempo)--------
Добавлено: 16.08.2015
Другие материалы по этой песне:

Страница создана 16.08.2015
http://primanota.ru/the-ghost-inside/dear-youth-day-52-chords.htm
Привет, Гость.
Предлагаем пройти революционный курс по гитаре.
Подарок от PrimaNota.Ru, забирай!