PrimaNota.ru - самый крупный в мире бесплатный архив песенных текстов, аккордов, табулатур и нот


The Ghost Inside - Dear Youth - таба, видео

Регистрация Запомнить меня
Войти через:  Facebook Google Twitter Vk Yandex Mail.ru

The Ghost Inside - Dear Youth - таба, видео

Печатать
Просмотров: 178
-------------------------------------------------------------------------------
                             Dear Youth - The Ghost Inside
-------------------------------------------------------------------------------
Tabbed by: Markus Thömmes (inspired from https://www.youtube.com/watch?v=KNtCD1zOVug)
e-mail: markusthoemmes@me.com

Tuning: Drop A#

Intro
C |--------------------------------------------------|
G |---10------10----11-10----------------------------|
D#|------10------10-------10----10-9----10-9-10-9----|
A#|-8-------8----------------12------10-----------10-|
F |--------------------------------------------------|
A#|--------------------------------------------------|

C |--------------------------------------------------|
G |---10------10----11-10----------------------------|
D#|------10------10-------10----10-9----10-12--------|
A#|-8-------8----------------10------10-------12-----|
F |--------------------------------------------------|
A#|--------------------------------------------------|

Chorus (strumming pattern should be easy enough)
C |--------------------------------------------------|
G |--------------------------------------------------|
D#|--------------------------------------------------|
A#|-12--------15-------14-------12--------14---------|
F |--8-(x16)--12-(x8)--10-(x8)---8-(x16)--10-(x16)---|
A#|--8--------12-------10--------8--------10---------|

Verse 1
C |--------------------------------------------------------|
G |--------------------------------------------------------|
D#|--------------------------------------------------------|
A#|-1-0----------------1-0-5-8-7--1-0-----------1-0-3-6-5--| (x2)
F |-1-0-4b-------------1-0-3-6-5--1-0-4b--------1-0-3-6-5--|
A#|-1-0----000000------1-0--------1-0----000000-1-0-3-6-5--|

Bridge
C |-------------------------------------|
G |-10-------11-------10-------11-------|
D#|-10-(x4)--10-(x4)--10-(x4)--10-(x4)--|
A#|--8--------8--------8--------8-------|
F |-------------------------------------|
A#|-------------------------------------|

Chorus (x1)

Verse 2
C |--------------------------------------------------------------------------------------------|
G |--------------------------------------------------------------------------------------------|
D#|---------------777777777777-12121212-9999------------101010101010101010101010-12121212-9999-|
A#|-0-----------------------------------------3------------------------------------------------|
F |-0-------------555555555555-10101010-7777--3----------8-8-8-8-8-8-8-8-8-8-8-8-10101010-7777-|
A#|-0-000000----------------------------------3-000000-----------------------------------------|

C |--------------------------------------------------------------------------------------------|
G |--------------------------------------------------------------------------------------------|
D#|---------------777777777777-12121212-9999------------101010101010101010101010-99999999------|
A#|-0-----------------------------------------3------------------------------------------------|
F |-0-------------555555555555-10101010-7777--3----------8-8-8-8-8-8-8-8-8-8-8-8-77777777------|
A#|-0-000000----------------------------------3-000000-----------------------------------------|

Breakdown Intro
C |-----------------------|
G |-----------------------|
D#|-----------------------|
A#|-1-0-------------6-3-5-|
F |-1-0-------------6-3-5-|
A#|-1-0-0000-0-0-00-6-3-5-|
                  (so i said goodbye)

Breakdown 1
C |----------------------------------------------------------------------------------------------------|
G |----------------------------------------------------------------------------------------------------|
D#|----------------------------------------------------------------------------------------------------|
A#|-1-0-------------1-0-5-0-8-7-------------1-0-3-0-6-5-------------1-0-5-0-8-7-------------1-0-6-3-5--|
F |-1-0-------------1-0-3-0-6-5-------------1-0-3-0-6-5-------------1-0-3-0-6-5-------------1-0-6-3-5--|
A#|-1-0-0000-0-0-00-1-0---0-----0000-0-0-00-1-0-3-0-6-5-0000-0-0-00-1-0---0-----0000-0-0-00-1-0-6-3-5--|

Bridge (x1)
Chorus (x2)

Interlude currently not possible due to a broken string sorry :P

Breakdown 2
C |------------------------------------------------|
G |------------------------------------------------|
D#|------------------------------------------------|
A#|-0-0-0-0-000---------0-0-0-0-000----------------|
F |-0-0-0-0-000-888-888-0-0-0-0-000-3-3-3-x-3-3-3--|
A#|-0-0-0-0-000-888-888-0-0-0-0-000-3-3-3-x-2-2-2--|

************************************

| /   slide up
| \   slide down
| h   hammer-on
| p   pull-off
| ~   vibrato
| +   harmonic
| x   Mute note
| b   Bend
| pb  Pre-bend
| br  Bend release
| pbr Pre-bend release
| brb Bend release bend

************************************
Добавлено: 18.10.2014
Вам также может быть интересно:
Другие материалы по этой песне:

Страница создана 18.10.2014
http://primanota.ru/the-ghost-inside/dear-youth-chords.htm
Привет, Гость.
Предлагаем пройти революционный курс по гитаре.
Подарок от PrimaNota.Ru, забирай!