PrimaNota.ru - самый крупный в мире бесплатный архив песенных текстов, аккордов, табулатур и нот


The Ghastly Ones - Lonesome Undertaker - таба, видео

Регистрация Запомнить меня
Войти через:  Facebook Google Twitter Vk Yandex Mail.ru

The Ghastly Ones - Lonesome Undertaker - таба, видео

Печатать
Просмотров: 96
-------------------------------------------------------------------------------
Lonesome Undertaker – The Ghastly Ones
-------------------------------------------------------------------------------

Tabbed by: Nathan
Email: brokenmarx@hotmail.com

Tuning: Standard e b g D A E

Intro/Main Riff

e|--4-------------------------------------------4~~-|
B|--4-------------------------------------------4~~-|
G|--4-4-6—4\2~~---------------------------------4~~-|
D|--6------------------6--6---6-4—4h6-----------6~~-|
A|--------------------6----6-6-------6-4-6------6~~-|
E|-----------------------------------------44---4~~-|

e|--------------------------------|
B|--------------------------------|
G|------------------------4---4~~-|
D|---6-6---6-4-4h6--------4---4~~-|
A|--6---6-6-------6-4-5--5--------|
E|--------------------------------|

e|---------------------------4~~-|
B|---------------------------4~~-|
G|---------------------------4~~-|
D|---6-6---6-4-4h6-----------6~~-|
A|--6---6-6-------6-4-6------6~~-|
E|----------------------44---4~~-|

e|--------------|
B|--------------|
G|--------------|
D|--------------|
A|--/66442211---|
E|-----------4--|

e|----------9-9-9-9------9-12-11-9-----4----4-4-4-4-----4-7-6-4---|
B|----------9-9-9-9---12-----------12\-4----4-4-4-4---7---------4-|
G|--2/11----9-9-9-9--11------------11\-4----4-4-4-4--6------------|
D|--4/11----------9--------------------6----------4---------------|
A|--4/11-x-x---------------------------6-x-x----------------------|
E|--2/-9-x-----------------------------4-4------------------------|

e|-------9-9-9-9------9-12-11-9------------------------------------|
B|-------9-9-9-9---12-----------12\--------------------------------|
G|-11----9-9-9-9--11------------11\--11-11\--12-12\-13-13\--12-12\-|
D|-11----------9---------------------13-13\--14-14\-15-15\--14-14\-|
A|-11-x-x----------------------------13-13\--14-14\-15-15\--14-14\-|
E|--9-x------------------------------11-11\--12-12\-13-13\--12-12\-|

e|-------------------------------------------------------|
B|--------------------------------4----4----4----4-------|
G|--------------------------4-6b(8)6b(8)6b(8)6b(8)-6p4-4-|   Etc.
D|---6-6---6-4-4h6---------6--------------------------6--|
A|--6---6-6-------6-4-6----------------------------------|
E|----------------------44-------------------------------|







e|-----------------------------------------------------------|
B|-----------------------------------------------------------|
G|-----------------------------------------------------------|   
D|---6-6---6-4-4h6-------------------------------------------|
A|--6---6-6-------6-4-6-----2-4b(5)4b(5)4-4p2-2-66442211-----|
E|----------------------44-4-----------------4----------4----|

Riff 2

e|-------------4---|
B|-----6-------4-4-|
G|--8--8-8--6----6-|
D|--8-8--8--6-8--6-|
A|--6x6-----4x6----|
E|-----------------|

Fill

e|--4--4--4-4--4-4-|
B|--7--7--6-6--4-4-|
G|-----------------|
D|-----------------|
A|-----------------|
E|-----------------|

Then comes Riff 2, with small variations, and ends like this:

e|---------------|
B|--4-6-4--4-6-4-|
G|--6-8-6--6-8-6-| 
D|--6-8-6--6-8-6-|
A|--4x6-4--4x6-4-|
E|---------------|

e|--4--4--4-4--4-4-|
B|--7--7--6-6--4-4-|
G|-----------------|
D|-----------------|
A|-----------------|
E|-----------------|

e|----------------------------|
B|----------------------------|
G|--6--6-6--4--4-4-444444444~-|
D|--6--6-6--4--4-4-666666666~-|
A|--4--4-4--2--2-2-666666666~-|
E|-----------------444444444~-|

Solo

e|----------------------------------------------------------------------------|
B|----------------------------------------------------------------------------|
G|-------3h4p3-4-4/6-4-p3-3/4~-\3--\1~~------------3h4p3-4-/6-4-6/-8~-8h9p8-9-|
D|---6~----------------------------------------6~-----------------------------|
A|--6-------------------------------------6-6-6-------------------------------|
E|----------------------------------------------------------------------------|




e|------------------------------------------------------------------|
B|-------------9~-11-11-11--11-9--7-7-9~-4-4--------4----4----------|
G|-11-8~(8)(8)-8~-10-11-10—-10-8--6-6-8~-4-4--4-6b(8)6b(8)(8)r6h4-4-|
D|-------------------------------------------6-------------------6--|
A|------------------------------------------------------------------|
E|------------------------------------------------------------------|

e|------------|
B|------------|
G|------------|  Etc.
D|------------|
A|--66442211--|
E|----------4-|

Ending:

e|------------|
B|------------|
G|------------|  X2
D|------------|
A|--66442211--|
E|----------4-|

And then the same, but a bit slower.

Gastly Ones Official Website: www.ghastlyones.com

| /  slide up
| \  slide down
| h  hammer-on
| p  pull-off
| ~  vibrato
| +  harmonic
| x  Mute note
===============================================================================

Добавлено: 12.06.2012
Вам также может быть интересно:
Другие материалы по этой песне:
  • Аккорды и текст

Страница создана 12.06.2012
http://primanota.ru/the-ghastly-ones/lonesome-undertaker-chords.htm
Привет, Гость.
Предлагаем пройти революционный курс по гитаре.
Подарок от PrimaNota.Ru, забирай!