PrimaNota.ru - самый крупный в мире бесплатный архив песенных текстов, аккордов, табулатур и нот


The Fuzz - This Time I Got A Reason - таба, видео

Регистрация Запомнить меня
Войти через:  Facebook Google Twitter Vk Yandex Mail.ru

The Fuzz - This Time I Got A Reason - таба, видео

Печатать
Просмотров: 107
Уроки эстрадного вокала в Санкт-Петербурге
-------------------------------------------------------------------------------
                     This Time I Got A Reason - Fuzz
-------------------------------------------------------------------------------

Tuning: Standard

e|-------3-3-3--5-5-5-5-5----------------------------------------------------|
B|-------5-3-3--5-5-5-5-5----------------------------------------------------|
G|--1-1--5-4-4--6-6-6-6-6--7b------------------------------------------------|
D|--2-2--5-5-5--7-7-7-7-7----------------------------------------------------|
A|--2-2--3-5-5--7-7-7-7-7----------------------------------------------------| 4x
E|--0-0--3-3-3--5-5-5-5-5----------------------------------------------------|

e|--8--8--8--8---10--5---8--8--8--8---3--5--8--8--8--8---10--5---3-3-3-3-3---------------|
B|--8--8--8--8---10--5---8--8--8--8---3--5--8--8--8--8---10--5---3-3-3-3-3---------------|
G|--9--9--9--9---11--6---9--9--9--9---4--6--9--9--9--9---11--6---4-4-4-4-4---------------|
D|--10-10-10-10--12--7---10-10-10-10--5--7--10-10-10-10--12--7---5-5-5-5-5---------------|
A|--10-10-10-10--12--7---10-10-10-10--5--7--10-10-10-10--12--7---5-5-5-5-5---------------|
E|--8--8--8--8---10--5---8--8--8--8---3--5--8--8--8--8---10--5---3-3-3-3-3---------------|

e|-------3-3-3--5-5-5-5-5----------------------------------------------------|
B|-------5-3-3--5-5-5-5-5----------------------------------------------------|
G|--1-1--5-4-4--6-6-6-6-6--7b------------------------------------------------|
D|--2-2--5-5-5--7-7-7-7-7----------------------------------------------------|
A|--2-2--3-5-5--7-7-7-7-7----------------------------------------------------| 4x
E|--0-0--3-3-3--5-5-5-5-5----------------------------------------------------|
Добавлено: 06.12.2015
Другие материалы по этой песне:
  • Аккорды и текст

Страница создана 06.12.2015
http://primanota.ru/the-fuzz/this-time-i-got-a-reason-chords.htm
Привет, Гость.
Предлагаем пройти революционный курс по гитаре.
Подарок от PrimaNota.Ru, забирай!