PrimaNota.ru - самый крупный в мире бесплатный архив песенных текстов, аккордов, табулатур и нот


The Future Islands - Little Dreamer Undressed Version - бас-таба, видео

Регистрация Запомнить меня
Войти через:  Facebook Google Twitter Vk Yandex Mail.ru

The Future Islands - Little Dreamer Undressed Version - бас-таба, видео

Печатать
Просмотров: 79
Artist: Future Islands
Song: Little Dreamer Undressed Version
Tabbed by: Dave Sheehan
Key: A#


1st VERSE [0:34]

G|-----------------|-----------------|-----------------|-----------------|
D|-----------------|-----------------|-5-----------5---|-----------------|
A|-----------------|-6-----------6-8-|---------------5-|-8---------------|
E|-6-----------8---|-----------8-----|-----------8-----|-----------------|   x2
   1 + 2 + 3 + 4 +   1 + 2 + 3 + 4 +   1 + 2 + 3 + 4 +   1 + 2 + 3 + 4 + 



CHORUS [1:02]

G|----------------------5/|-7-----7h10p8-----8h10p8-|
D|/10-------8-------------|-------------------------|
A|-------10---------------|-------------------------|
E|------------------------|-------------------------| 
   1  +  2  +  3  +  4  +   1  +  2  +  3  +  4  +   

G|----------------------5/|-7-----7h10p8------------|
D|/10-------8-------------|-------------------------|
A|-------10---------------|-------------------------|
E|------------------------|-------------------------| 
   1  +  2  +  3  +  4  +   1  +  2  +  3  +  4  +   

2nd VERSE [1:14]

G|-----------------|-----------------|-----------------|------------------|
D|-----------------|-----------------|-5-----------5---|------------------|
A|-----------------|-6-----------6-8-|---------------5-|-8----------------|
E|-6-----------8---|-----------8-----|-----------8-----|---------8h10--10\|   
   1 + 2 + 3 + 4 +   1 + 2 + 3 + 4 +   1 + 2 + 3 + 4 +   1 + 2 + 3 + 4 + 


G|-----------------|-----------------|-----------------|------------------|
D|-----------------|-----------------|-5-----------5---|------------------|
A|-----------------|-6-----------6-8-|---------------5-|-8----------------|
E|-6---------6-8---|-----------8-----|-----------8-----|------------------|   
   1 + 2 + 3 + 4 +   1 + 2 + 3 + 4 +   1 + 2 + 3 + 4 +   1 + 2 + 3 + 4 + 


2nd CHORUS [1:42]

(same as first)



3rd VERSE [1:57]

G|-----------------|-----------------|-----------------|-----------------|
D|-----------------|-----------------|-5---------------|-----------------|
A|-----------------|-6---------------|-----------------|-8---------------|
E|-6---------------|-----------------|-----------------|-----------------| x3
   1 + 2 + 3 + 4 +   1 + 2 + 3 + 4 +   1 + 2 + 3 + 4 +   1 + 2 + 3 + 4 + 

G|-----------------|-----------------|-----------------|------------------|
D|-----------------|-----------------|-5-----------5---|------------------|
A|-----------------|-6-----------6-8-|---------------5-|-8----------------|
E|-6-----------8---|-----------8-----|-----------8-----|---------8h10--10\|   
   1 + 2 + 3 + 4 +   1 + 2 + 3 + 4 +   1 + 2 + 3 + 4 +   1 + 2 + 3 + 4 + 

G|-----------------|
D|-----------------|
A|-----------------|
E|-6~~~~~~~~~~~~~--|
   1 + 2 + 3 + 4 +  


| /  slide up
| \  slide down
| h  hammer-on
| p  pull-off
| ~  vibrato
| +  harmonic
| x  Mute note
Добавлено: 01.05.2016
Другие материалы по этой песне:
  • Аккорды и текст

Страница создана 01.05.2016
http://primanota.ru/the-future-islands/little-dreamer-undressed-version-chords.htm
Привет, Гость.
Предлагаем пройти революционный курс по гитаре.
Подарок от PrimaNota.Ru, забирай!