PrimaNota.ru - самый крупный в мире бесплатный архив песенных текстов, аккордов, табулатур и нот


The Future Islands - In The Fall - бас-таба, видео

Регистрация Запомнить меня
Войти через:  Facebook Google Twitter Vk Yandex Mail.ru

The Future Islands - In The Fall - бас-таба, видео

Печатать
Просмотров: 65
Уроки эстрадного вокала в Санкт-Петербурге
Artist: Future Islands
Song: In The Fall 
Tabbed by: Dave Sheehan

NOTE: Undressed version is the same, he just only plays Part B and not part A in the chorus. 


1st VERSE [0:48]

G|-------------------------|------------------------|
D|-------------------------|------------------------|
A|-------------------------|------------------------|
E|-1--1--1/-5--5--5--5--5--|/10-10-10\8--8--8--8--8-| x8
   1  +  2  +  3  +  4  +    1  +  2  +  3  +  4  +  


1st CHORUS [1:38]
part A

G|----------------------------|------------------------|-------------------------|-----------------------|
D|----------------------------|------------------------|-------------------------|-----------------------|
A|-10-10-10h14-12-12-12-12-12-|-5--5--5--3--3--3--3--3-|-------------------------|-----------------------|
E|----------------------------|------------------------|-1--1--1/-8--8--8--8--8--|/10-10-10-8--8--8--8--8| x2
   1  +  2     +  3  +  4  +    1  +  2  +  3  +  4  +   1  +  2  +  3  +  4  +    1  +  2  +  3  +  4  + 


part B
G|--------------------------|------------------------|-------------------------|------------------------|
D|--------------------------|------------------------|-------------------------|------------------------|
A|--------------------------|------------------------|-------------------------|------------------------|
E|-3--3--3h7p5--5--5--5--5--|/10-10-10-8--8--8--8--8\|-1--1--1/-8--8--8--8--8--|/10-10-10-8--8--8--8--8-| x4
   1  +  2   +  3  +  4  +    1  +  2  +  3  +  4  +   1  +  2  +  3  +  4  +    1  +  2  +  3  +  4  + 


2nd VERSE

(same as first verse)



2nd CHORUS

(same as 2nd chorus)



3rd VERSE

(same as first verse)



| /  slide up
| \  slide down
| h  hammer-on
| p  pull-off
| ~  vibrato
| +  harmonic
| x  Mute note
Добавлено: 01.05.2016
Другие материалы по этой песне:
  • Аккорды и текст

Страница создана 01.05.2016
http://primanota.ru/the-future-islands/in-fall-chords.htm
Привет, Гость.
Предлагаем пройти революционный курс по гитаре.
Подарок от PrimaNota.Ru, забирай!