PrimaNota.ru - самый крупный в мире бесплатный архив песенных текстов, аккордов, табулатур и нот


The Future Islands - The Great Fire - бас-таба, видео

Регистрация Запомнить меня
Войти через:  Facebook Google Twitter Vk Yandex Mail.ru

The Future Islands - The Great Fire - бас-таба, видео

Печатать
Просмотров: 85
Уроки эстрадного вокала в Санкт-Петербурге
-------------------------------------------------------------------------------
                             THE GREAT FIRE - Future Islands
-------------------------------------------------------------------------------
Tabbed by: MaxConnell

Tuning: Standard

Verse

G||--------------|--------------|--------------|--------------|
D||.-------------|--------------|--------------|--------------|
A||.-------------|--------------|--------------|--------------|
E||--3/7---------|--------------|--7\3---------|-----------3--|

                                                              x3
G||--------------|--------------|--------------|--------------||
D||--------------|--------------|--------------|-------------.||
A||--5-----------|--------5--4--|--------------|-------------.||
E||--------------|-----5--------|--5-----------|--------------||


Chorus
                                                              x2
G||--------------|--------------|--------------|--------------||
D||.-------------|--------------|--------------|-------------.||
A||.-5-----------|--------------|--------------|-------------.||
E||--------------|--------------|--5-----------|--0-----------||

                                                              x2
G||--------------|--------------|--------------|--------------||
D||.-------------|--------------|--------------|-------------.||
A||.-5-----------|--------------|--------------|--7----------.||
E||--------------|--------------|--5-----------|--------------||


| /  slide up
| \  slide down
| h  hammer-on
| p  pull-off
| ~  vibrato
| +  harmonic
| x  Mute note
===============================================================================
Добавлено: 23.12.2015
Другие материалы по этой песне:
  • Аккорды и текст

Страница создана 23.12.2015
http://primanota.ru/the-future-islands/great-fire-chords.htm
Привет, Гость.
Предлагаем пройти революционный курс по гитаре.
Подарок от PrimaNota.Ru, забирай!