PrimaNota.ru - самый крупный в мире бесплатный архив песенных текстов, аккордов, табулатур и нот


The Future Islands - The Chase - бас-таба, видео

Регистрация Запомнить меня
Войти через:  Facebook Google Twitter Vk Yandex Mail.ru

The Future Islands - The Chase - бас-таба, видео

Печатать
Просмотров: 50
Artist: Future Islands  
Song: The Chase
Tabbed by: Dave Sheehan

Please rate :)


INTRO [0:15]

G|-----------------|-----------------|-----------------|-----------------|
D|-----------------|-----------------|-----------------|-----------------|
A|-----------------|-----------------|-----------------|-----------------|
E|-3---3-3---3-3-3-|-3---3-3---3-3-3-|/6---6-6---6-6-6-|-6---6-6---6-6-6\| 
   1 + 2 + 3 + 4 +   1 + 2 + 3 + 4 +   1 + 2 + 3 + 4 +   1 + 2 + 3 + 4 + 


G|-----------------|-----------------|-----------------|-----------------|
D|-----------------|-----------------|-----------------|-----------------|
A|-----------------|-----------------|-----------------|-----------------|
E|-3---3-3---3-3-3-|-3---3-3---3-3-3-|/6---6-6---6-6-6-|-6---6-6---6-8-8/| 
   1 + 2 + 3 + 4 +   1 + 2 + 3 + 4 +   1 + 2 + 3 + 4 +   1 + 2 + 3 + 4 + 



1st VERSE [0:29]

G|-------------------------|-------------------------|-------------------------|------------------------|
D|-------------------------|-------------------------|-------------------------|------------------------|
A|-------------------------|-------------------------|-------------------------|------------------------|
E|-11-11-11-11-11-11-11-11-|-11-11-11-11-11-11-11-\--|-6--6--6--6--6--6--6--6--|-6--6--6--6--6--6--6\---|
   1  +  2  +  3  +  4  +    1  +  2  +  3  +  4  +    1  +  2  +  3  +  4  +    1  +  2  +  3  +  4  + 


G|-------------------------|-------------------------|-------------------------|------------------------|
D|-------------------------|-------------------------|-------------------------|------------------------|
A|-------------------------|-------------------------|-------------------------|----------------------8/|
E|-3--3--3--3--3--3--3--3--|-3--3--3--3--3--3--3/----|-6--6--6--6--6--6--6--6--|-6--6--6--6--6--8--10---|
   1  +  2  +  3  +  4  +    1  +  2  +  3  +  4  +    1  +  2  +  3  +  4  +    1  +  2  +  3  +  4  + 



1st CHORUS [0:44]

G|-------------------12----|-------------------------|-------------------------|------------------------|
D|-------------12----------|-------------12-10-------|-------------8--10-8-----|-------------------7~~--|
A|-10-10-10-10----10----10-|-10-10-10-10-------13-12-|-8--8--8--8-----------8--|-8--8--8--8--6--8-------|
E|-------------------------|-------------------------|-------------------------|------------------------|
   1  +  2  +  3  +  4  +    1  +  2  +  3  +  4  +    1  +  2  +  3  +  4  +    1  +  2  +  3  +  4  + 



2nd VERSE [1:13]

(as first)



2nd CHORUS [1:42]

(as first)



3rd VERSE [2:11]

G|-------------------------|-------------------------|--------------------------|-------------------------|
D|----------------8--8--10-|----8-----8-----8--------|-------------12-12-12-10--|-----10----10----12-10-8-|
A|-6--6--6--6--10----------|-------------------8--10-|--------------------------|-------------------------|
E|-------------------------|-------------------------|-6--6--6--6---------------|-------------------------|
   1  +  2  +  3  +  4  +    1  +  2  +  3  +  4  +    1  +  2  +  3  +  4  +      1  +  2  +  3  +  4  + 

variation [2:33]

G|-------------------------|-------------------------|--------------------------|-------------------------|
D|----------------8--8--10-|----12----10-----8-------|-------------12-12-12-10--|-----10----10----12-10-8-|
A|-6--6--6--6--10----------|-------------------8--10-|--------------------------|-------------------------|
E|-------------------------|-------------------------|-6--6--6--6---------------|-------------------------|
   1  +  2  +  3  +  4  +    1  +  2  +  3  +  4  +    1  +  2  +  3  +  4  +      1  +  2  +  3  +  4  + 


3rd VERSE 



3rd CHORUS [2:47]

(as first)



OUTRO [3:16]

(as 1st VERSE)




| /  slide up
| \  slide down
| h  hammer-on
| p  pull-off
| ~  vibrato
| +  harmonic
| x  Mute note
Добавлено: 01.05.2016
Вам также может быть интересно:
Другие материалы по этой песне:
  • Аккорды и текст

Страница создана 01.05.2016
http://primanota.ru/the-future-islands/chase-chords.htm
Привет, Гость.
Предлагаем пройти революционный курс по гитаре.
Подарок от PrimaNota.Ru, забирай!