PrimaNota.ru - самый крупный в мире бесплатный архив песенных текстов, аккордов, табулатур и нот


The Future Islands - Back In The Tall Grass - бас-таба, видео

Регистрация Запомнить меня
Войти через:  Facebook Google Twitter Vk Yandex Mail.ru

The Future Islands - Back In The Tall Grass - бас-таба, видео

Печатать
Просмотров: 259
Artist: Future Islands
Song: Back In The Tall Grass
Tabbed by: Dave Sheehan

Please rate :)


VERSE

G|-------------------------|-----------------------------|
D|-10-10-10-10-10-10-10-10-|-10-10-10-10-10-10-----------|
A|-------------------------|-------------------8h10-8h10-|
E|-------------------------|-----------------------------|


PART II ("…a long way from home…")

G|-----------------------|-------------------------|
D|-10-10-10-12-12-9-9-10-|-10-10-10-10-10-10-10-10-|
A|-----------------------|-------------------------|
E|-----------------------|-------------------------|


PART III

G|------------------|-----------------|
D|-----------9-9-10-|-----------------|
A|-7-7-7-7-7--------|-8-8-8-8-8-8-8-8-|
E|------------------|-----------------|


| /  slide up
| \  slide down
| h  hammer-on
| p  pull-off
| ~  vibrato
| +  harmonic
| x  Mute note
Добавлено: 28.06.2014
Другие материалы по этой песне:
  • Аккорды и текст

Страница создана 28.06.2014
http://primanota.ru/the-future-islands/back-in-tall-grass-chords.htm
Привет, Гость.
Предлагаем пройти революционный курс по гитаре.
Подарок от PrimaNota.Ru, забирай!