PrimaNota.ru - самый крупный в мире бесплатный архив песенных текстов, аккордов, табулатур и нот


The Front Bottoms - The Wrong Way - таба, видео

Регистрация Запомнить меня
Войти через:  Facebook Google Twitter Vk Yandex Mail.ru

The Front Bottoms - The Wrong Way - таба, видео

Печатать
Просмотров: 121
-------------------------------------------------------------------------------
                             THE WRONG WAY - The Front Bottoms
-------------------------------------------------------------------------------
Tabbed by: Noise Pollution

Tuning: Standard

VERSE

"I paint my face on a wall in your bedroom..."

e|---------------------------------------------------------------------------|
B|---------------------------------------------------------------------------|
G|---------------------------------------------------------------------------|
D|----------------------------8-8-8-8----------------------------------------|
A|----8-8-8-8-8-8-8-8-5-5-5-5-6-6-6-6----------------------------------------|
E|----6-6-6-6-6-6-6-6-3-3-3-3------------------------------------------------|

CHORUS

"And we both know where this is going to lead to..."

e|---------------------------------------------------------------------------|
B|---------------------------------------------------------------------------|
G|---------------------------------------------------------------------------|
D|----8-8-8-8-8-8-8-8-8-8-8-8-8-8-8-8----------------------------------------|
A|----6-6-6-6-6-6-6-6-6-6-6-6-6-6-6-6-8-8-8-8-8-8-8-8-8-8-8-5-6-6-5-5--------|
E|------------------------------------6-6-6-6-6-6-6-6-6-6-6-6-6-6-6-6--------|

And that's basically it. You can mix up the rhythm if you want, or add cool little flourishes
but this is a base you can work with.
Добавлено: 01.07.2015
Другие материалы по этой песне:
  • Аккорды и текст

Страница создана 01.07.2015
http://primanota.ru/the-front-bottoms/wrong-way-chords.htm
Привет, Гость.
Предлагаем пройти революционный курс по гитаре.
Подарок от PrimaNota.Ru, забирай!