PrimaNota.ru - самый крупный в мире бесплатный архив песенных текстов, аккордов, табулатур и нот


The Front Bottoms - I Swear To God The Devil Made Me Do It - бас-таба, видео

Регистрация Запомнить меня
Войти через:  Facebook Google Twitter Vk Yandex Mail.ru

The Front Bottoms - I Swear To God The Devil Made Me Do It - бас-таба, видео

Печатать
Просмотров: 47
The Front Bottoms - 

Tabbed by: Ashy (XxThreeCheersxX)
E-mail: burdickash@gmail.com

Tuning: Standard

Intro/Verse
G|---------------------------------|
D|---------------------------------|
A|-0-0-0-4-4-4-2-4-0-0-0-5-5-5-4-5-| x 6
E|---------------------------------|

G|-2-------------2-------------|
D|---2--------2----2-----------|
A|-----5-4--5--------5-4--5-0--|
E|-----------------------------|

G|---------------------------------|
D|---------------------------------|
A|-0-0-0-4-4-4-2-4-0-0-0-5-5-5-4-5-| x 3
E|---------------------------------|

G|-----------------------------------------------------------------|
D|-2-2-2-2-2-2-2-2-2-2-2-2-2-2-------------------------------------|
A|-----------------------------2-4-5-5-5-5-5-5-5-5-5-5-5-5-5-5-5-5-|
E|-----------------------------------------------------------------|

Chorus
G|-----------------------------------------------------------------|
D|-4-4-4-4-4-4-4-4-------------------------------------------------|
A|-----------------5-5-5-5-5-5-5-5-----------------2-2-2-2-2-------|
E|---------------------------------5-5-5-5-5-5-5-5-----------5-4-0-|

G|-----------------------------------------------------------------|
D|-----------------------------------------------------------------|
A|-----------------5-5-5-5-5-5-5-5-----------------2-2-2-2-2-------|
E|-2-2-2-2-2-2-2-2-----------------5-5-5-5-5-5-5-5-----------5-4-0-|

G|-------------------------------------------------------------------------------------|
D|-------------------------------------2-2-2-2-2-2-2-2-0-0-0-0-0-0-0-0-0-0-0-0-0-0-0-0-|
A|----------5-5----5----------2-2----2-------------------------------------------------|
E|-2-2----2----------5-5----5----------------------------------------------------------|

Intro/Verse (same as before)

Chorus (same as before)

Bridge 
G|-------|
D|-4x----|
A|-------|
E|-------|

G|---------------------------------|
D|-0-0-0-0-0-0-0-0/2-2-2-2-2-2-2-2-|
A|---------------------------------|
E|---------------------------------|

G|-------|
D|-4x----|
A|-------|
E|-------|

G|------------------------------------------------------------------|
D|-0-0-0-0-0-0-0-0/2-2-2-2-2-2-2-2/4-4-4-4-4-4-4-4/7-7-7-7-7-7-7-7\-|
A|------------------------------------------------------------------| x 
E|------------------------------------------------------------------|

G|-------------------------------------------------|
D|-0-0-0-0-0-0-0-0/2-2-2-2-2-2-2-2-2-2-2-2-2-2-2-2-|
A|-------------------------------------------------|
E|-------------------------------------------------|

G|---------------------------------|
D|---------------------------------|
A|-5-5-5-4-4-4-0-0-5-5-5-4-4-4-0-0-|
E|---------------------------------|

Final Chorus
G|---------------------------------------------------------|
D|---------------------------------------------------------|
A|---------5-5-5-5-5-5-5-5-----------------2-2-2-2-2-------|
E|-2-2-2-2-----------------5-5-5-5-5-5-5-5-----------5-4-0-|

G|-----------------------------------------------------------------|
D|-----------------------------------------------------------------|
A|-----------------5-5-5-5-5-5-5-5-----------------2-2-2-2-2-------|
E|-2-2-2-2-2-2-2-2-----------------5-5-5-5-5-5-5-5-----------5-4-0-|

G|---------------------------------------------------------|
D|---------------------------------------------------------|
A|---------5-5-5-5-5-5-5-5-----------------2-2-2-2-2-------|
E|-2-2-2-2-----------------5-5-5-5-5-5-5-5-----------5-4-0-|

G|-----------------------------------------------------------------|
D|-----------------------------------------------------------------|
A|-----------------5-5-5-5-5-5-5-5-----------------2-2-2-2-2-------|
E|-2-2-2-2-2-2-2-2-----------------5-5-5-5-5-5-5-5-----------5-4-0-|

Outro
G|---------------------------------|
D|---------------------------------|
A|-0-0-0-4-4-4-2-4-0-0-0-5-5-5-4-5-| x 2
E|---------------------------------|

Happy playing!


| /  slide up
| \  slide down
| h  hammer-on
| p  pull-off
| ~  vibrato
| +  harmonic
| x  Mute note
===============================================================================
Добавлено: 01.07.2015
Другие материалы по этой песне:
  • Аккорды и текст

Страница создана 01.07.2015
http://primanota.ru/the-front-bottoms/i-swear-to-god-devil-made-me-do-it-chords.htm
Привет, Гость.
Предлагаем пройти революционный курс по гитаре.
Подарок от PrimaNota.Ru, забирай!