PrimaNota.ru - самый крупный в мире бесплатный архив песенных текстов, аккордов, табулатур и нот


The Friday Night Boys - Permanent Heartbreak - таба, видео

Регистрация Запомнить меня
Войти через:  Facebook Google Twitter Vk Yandex Mail.ru

The Friday Night Boys - Permanent Heartbreak - таба, видео

Печатать
Просмотров: 83
Band - The Friday Night Boys
Song - Permanent Heartbreak
Album - Off The Deep End

/= slide up
\= slide down
.= palm mute
h= hammer on
()= slide up or down to

Intro - guitar 1
e|------0--|
B|----7----|
G|--4------|
D|---------|
A|---------|
E|---------|
Repeat until the pre-chorus

Verse 1 - guitar 2
e|----------------------------------------------------------------------|
B|----------------------------------------------------------------------|
G|-----------------------------------------6-6-6-6-6-6-6-6-6-6-6-6-6-6--|
D|--9\-2-2-2-2-2-2-2-2-2-2-2-2-2-2-4-4-4-4-6-6-6-6-6-6-6-6-6-6-6-6-6-6--|
A|--9\-2-2-2-2-2-2-2-2-2-2-2-2-2-2-4-4-4-4-4-4-4-4-4-4-4-4-4-4-4-4-4-4--|
E|--7\-0-0-0-0-0-0-0-0-0-0-0-0-0-0-2-2-2-2------------------------------|
       . . . . . . . . . . . . . . . . . . . . . . . . . . . . . . . .

continued
---------------------------------------------------------------------------------|
---------------------------------------------------------------------------------|
----------------------------------------------6-6-6-6-6-6-6-6-6-6-6-6-6-6-4-4-4--|
--7-7-7-7-2-2-2-2-2-2-2-2-2-2-2-2-2-2-2-2-2-2-6-6-6-6-6-6-6-6-6-6-6-6-6-6-4-4-4--|
--7-7-7-7-2-2-2-2-2-2-2-2-2-2-2-2-2-2-2-2-2-2-4-4-4-4-4-4-4-4-4-4-4-4-4-4-2-2-2--|
--5-5-5-5-0-0-0-0-0-0-0-0-0-0-0-0-0-0-0-0-0-0------------------------------------|
  . . . . . . . . . . . . . . . . . . . . . . . . . . . . . . . . . . . . . . .


Pre-chorus 1 - guitar 2
e|-------------------|
B|-------------------|
G|--2---4---6--4--2--|
D|--2---4---6--4--2--|
A|--0---2---4--2--0--|
E|-------------------|
Let these ring

Chorus 1
e|-------------------------------------------------------------------------|
B|-------------------------------------------------------------------------|
G|----------4-------6------4------2---------------4---------------2--------|
D|--2-------4-(x16)-6-(x8)-4-(x8)-2-(x16)-2-------4-(x16)-4-------2-(x16)--|
A|--2-(x16)-2-------4------2------0-------2-(x16)-2-------4-(x16)-0--------|
E|--0-------------------------------------0---------------2----------------|

Back to this on guitar 1
e|------0--|
B|----7----|
G|--4------|
D|---------|
A|---------|
E|---------|

Verse 2 - guitar 2
e|-------------------------------------------------------------------------------|
B|-------------------------------------------------------------------------------|
G|-----------------------------6-6-6-6-6-6-6-6-6---------------------------------|
D|--9\-2-2-2-2-2-2-2-2-2-4-4-4-6-6-6-6-6-6-6-6-6-7-7-7-2-2-2-2-2-2-2-2-2-2-2-2---|
A|--9\-2-2-2-2-2-2-2-2-2-4-4-4-4-4-4-4-4-4-4-4-4-7-7-7-2-2-2-2-2-2-2-2-2-2-2-2---|
E|--7\-0-0-0-0-0-0-0-0-0-2-2-2-------------------5-5-5-0-0-0-0-0-0-0-0-0-0-0-0---|
       . .   . .   . .   . .   . .   . .   . .   . .   . .   . .   . .   . .

continued
-------------------------------------------------------------------|
-------------------------------------------------------------------|
--6-6-6-6-6-6-6-6-6-4-4-4---------------------6-6---6--6--6--------|
--6-6-6-6-6-6-6-6-6-4-4-4-2-2---2--2--2-4-4-4-6-6---6--6--6-7-7-7--|
--4-4-4-4-4-4-4-4-4-2-2-2-2-2---2--2--2-4-4-4-4-4---4--4--4-7-7-7--|
--------------------------0-0---0--0--0-2-2-2---------------5-5-5--|
  . .   . .   . .   . .   . .   .  .  . . .   . .   .  .  . . .

continued
---------------------------------------------------|
---------------------------------------------------|
--------------------------6-6-6-6-6-6-6-6-6-4-4-4--|
--2-2-2-2-2-2-2-2-2-4-4-4-6-6-6-6-6-6-6-6-6-4-4-4--|
--2-2-2-2-2-2-2-2-2-4-4-4-4-4-4-4-4-4-4-4-4-2-2-2--|
--0-0-0-0-0-0-0-0-0-2-2-2--------------------------|
  . .   . .   . .   . .   . .   . .   . .   . .

Guitar 1 plays this a bunch of times at towards the end of the verse and the pre-chorus
e|------4-7--|
B|--4h5------|
G|-----------|
D|-----------|
A|-----------|
E|-----------|

Pre-chorus 2 - guitar 2
e|-----------------------------------------------------------------|
B|-----------------------------------------------------------------|
G|--2-2-2-2-2-2-2-2-2-2-2-2-2-2--2-4-4-4-4-4-4-4-4-4-4-4-4-4-4--4--|
D|--2-2-2-2-2-2-2-2-2-2-2-2-2-2--2-4-4-4-4-4-4-4-4-4-4-4-4-4-4--4--|
A|--0-0-0-0-0-0-0-0-0-0-0-0-0-0--0-2-2-2-2-2-2-2-2-2-2-2-2-2-2--2--|
E|-----------------------------------------------------------------|
      . . . . . . . . . . . .        . . . . . . . . . . . .

continued
------------------------------------|
------------------------------------|
------------------------------------|
--6-6-6-6-6-6--6-4-4-4-4-4-4--4--2--|
--6-6-6-6-6-6--6-4-4-4-4-4-4--4--2--|
--4-4-4-4-4-4--4-2-2-2-2-2-2--2--0--|
      . . . .        . . . .

Chorus 2 - (same as chorus 1)
e|-------------------------------------------------------------------------|
B|-------------------------------------------------------------------------|
G|----------4-------6------4------2---------------4---------------2--------|
D|--2-------4-(x16)-6-(x8)-4-(x8)-2-(x16)-2-------4-(x16)-4-------2-(x16)--|
A|--2-(x16)-2-------4------2------0-------2-(x16)-2-------4-(x16)-0--------|
E|--0-------------------------------------0---------------2----------------|

Solo - guitar 1
e|---------------------------------------------------------------------------------|
B|---------------------------------------------------------------------------------|
G|---------------16-16--------------------------------16-16------------------------|
D|--18\(14)14-16-------16-14-14-16-18-18-16--16-16-18-------18-14-14-16-18-18-16---|
A|---------------------------------------------------------------------------------|
E|---------------------------------------------------------------------------------|

continued
--18181817------------------------------------------------------------|
-----------17---------------------------------------------------------|
--------------17-15-14-15-17-17---------------------------------------|
-----------------------------------18-18h19-16h18-14h16-14-13\--------|
----------------------------------------------------------------------|
----------------------------------------------------------------------|

continued
---------------------------------------------------------------------|
--------------------------------12-12-12-10-10-9-9-10-10-10-9-9------|
----------------------------------------------------------------9-9--|
---9-9-9-7-7-6-6-7-7-7-6-6-------------------------------------------|
---------------------------7-7---------------------------------------|
---------------------------------------------------------------------|

continued
-------12------12------12--------16/(17)\(16)-------14----11-12--|
--9-10----9-10----9-10--------17-------------17------------------|
------------------------------------------------16---------------|
-----------------------------------------------------------------|
-----------------------------------------------------------------|
-----------------------------------------------------------------|

Guitar 2 under the solo
e|-------------------------------------------------------------------|
B|-------------------------------------------------------------------|
G|--6-------4-------2-------4-------6-------4-------2-------4--------|
D|--6-(x16)-4-(x16)-2-(x16)-4-(x16)-6-(x16)-4-(x16)-2-(x16)-4-(x16)--|
A|--4-------2-------0-------2-------4-------2-------0-------2--------|
E|-------------------------------------------------------------------|

Guitar 1 plays this a few times after the solo
e|------0--|
B|----7----|
G|--4------|
D|---------|
A|---------|
E|---------|


Chorus 3 - (same as chorus 1 and 2)
e|-------------------------------------------------------------------------|
B|-------------------------------------------------------------------------|
G|----------4-------6------4------2---------------4---------------2--------|
D|--2-------4-(x16)-6-(x8)-4-(x8)-2-(x16)-2-------4-(x16)-4-------2-(x16)--|
A|--2-(x16)-2-------4------2------0-------2-(x16)-2-------4-(x16)-0--------|
E|--0-------------------------------------0---------------2----------------|

Outro (right after chorus 3)
e|-------------------|
B|-------------------|
G|----------2--------|
D|--5-------2-(x16)--|
A|--5-(x16)-0--------|
E|--3----------------|

You're done!
Добавлено: 06.06.2012
Другие материалы по этой песне:
  • Аккорды и текст

Страница создана 06.06.2012
http://primanota.ru/the-friday-night-boys/permanent-heartbreak-chords.htm
Привет, Гость.
Предлагаем пройти революционный курс по гитаре.
Подарок от PrimaNota.Ru, забирай!