PrimaNota.ru - самый крупный в мире бесплатный архив песенных текстов, аккордов, табулатур и нот


The Fray - You Found Me - аккорды и текст, таба, бас-таба, видео

Регистрация Запомнить меня
Войти через:  Facebook Google Twitter Vk Yandex Mail.ru

The Fray - You Found Me - аккорды и текст, таба, бас-таба, видео

Печатать
Просмотров: 1577
Авторы: The Fray

You Found Me
The Fray
The Fray
You Found Me
The Fray -- 2009

Tuning - Standard (E A D G B E) - Capo 4
*Chords are listed at end of song

Intro - Piano to guitar
e|--------------------------------------------|
B|----3------3------3------3------3------3----|
G|--0---0--0---0--0---0--0---0--0---0--0---0--|
D|--------------------------------------------|
A|--------------------------------------------|
E|--------------------------------------------|

Verse 1 - Piano to guitar
   "I found God on the corner of First and Amistad"
e|--------------------------------------------|
B|--------------------------------------------|
G|--------------------------------------------|
D|---------------------0----------------------|
A|--0-2------------------------------------3--|
E|----------0--------------------3------------|
    
   "Where the west was all but won"
e|--------------------------------|
B|--------------------------------|
G|--------------------------------|
D|---------------------0----------|
A|--0-----2--------------------3--|
E|------------0------------3------|

   "All a-lone smoking his last cigarette" 
e|---------------------------------|
B|---------------------------------|
G|---------------------------------|
D|-------------0-------------------|
A|--0---2-----------------------3--|
E|--------0------------3-----------|
     
"I said, 'Where you been?'" He said, 'Ask anything' Where were you..."
e|----------------------------------------------------------------|
B|-------------------------------------------------------------0--|
G|-------------------------------------------------------------0--|
D|------------------------------------0------------------------2--|
A|--------0-----2----------------------------3------0-----2----2--|
E|------------------0---------------------3--------------------0--|

Verse 1 - Guitar (* = piano notes)
A*    B*   Em
Where were you
     D/F# G         C
When everything was falling apart?
       Em
All my days
     D/F#  G      C
Were spent by the telephone
         Em
It never rang
    D/F#  G      C
And all I needed was a call
         Em
It never came
       D/F#      G         C      
To the corner of First and Amistad

Chorus
Em           C
Lost and insecure
G           D/F#
You found me,   you found me
Em           C
Lying on the floor
G         D/F#
Surrounded,   surrounded
Em                C
Why'd you have to wait?
G              D/F#
Where were you?    Where were you?
Em            C
Just a little late
G           D/F# G         Em
You found me,    you found me

Interlude - Same as intro

Verse 2 - Same chords as V.1
But in the end
Everyone ends up alone
Losing her
The only one who's ever known
Who I am, who I'm not, who I want to be
No way to know
How long she will be next to me

Chorus

Interlude
D/F# C - 2x

Bridge Riff [2:18-2:41] - Piano to guitar
e|--2--3-----2--3-----2--3-----2--3-----|
B|--------3--------3--------3--------3--|
G|--------------------------------------|
D|--------------------------------------|
A|--------------------------------------|
E|--------------------------------------|

Bridge
           D/F#             C
From early morning the city breaks
          D/F#                            C
I've been calling for years and years and years and years
                         D/F#                           C
And you never left me no messages, you never sent me no letters
                     D/F#
You got some kind of nerve
             C
Taking all I was

Chorus - 1st half piano followed by full band 1x through

Outro
          Em C G D/F#
You found me
Em                C
Why'd you have to wait?
G         D/F#   G    Em
To find me,   to find me

*Chords Used
    Em  D/F#  G  C  
e|------------3-----|
B|--0----3----3--1--|
G|--0----2----0--0--|
D|--2----0----0--2--|
A|--2----x----2--3--|
E|--0----2----3-----|

I personally like playing the C as Cadd9, the Em as Em7, and the G as Gsus2,
but I just put them in their standard form throughout the tab -- play
whatever sounds best to you!
Добавлено: 22.04.2012
Другие материалы по этой песне:

Страница создана 22.02.2012
http://primanota.ru/the-fray/you-found-me-chords.htm
Привет, Гость.
Предлагаем пройти революционный курс по гитаре.
Подарок от PrimaNota.Ru, забирай!