PrimaNota.ru - самый крупный в мире бесплатный архив песенных текстов, аккордов, табулатур и нот


The Fratellis - Halloween Blues - аккорды и текст, таба, видео

Регистрация Запомнить меня
Войти через:  Facebook Google Twitter Vk Yandex Mail.ru

The Fratellis - Halloween Blues - аккорды и текст, таба, видео

Печатать
Просмотров: 263
Авторы музыки: Jon Fratelli
Авторы текста: Jon Fratelli
Halloween Blues
The Fratellis
(Credit to jd3v3n3y, this is his tab but transposable)

                        E
Well I'm gonna make you love me
                   E
I'm gonna make you wish that you'd never been born
                         A
Now you wish you'd never met me
             E
I can be the joker that you couldn't shake off

                       E
And I'm gonna make you need me
                 E
I'm gonna be the drink that you couldn't put down
                    A
I swear it won't be easy
                        E
'Cause when you got the Halloween blues, there's never a let down


[fun little fill here, goes something like this:]
e|-------------------------------------------|
B|-------------------------------------------|
G|-------------------------------------------|
D|-2-1-0-------------------------------0-1-2-|
A|-------2-1-0---0-----------0-1-0-1-2-------|
E|-------------3---3---0-3-4-----------------|

e|-----------------------------------------------------|
B|-----------------------------------------------------|
G|-----------------------------------------------------|
D|-2-1-0-----------------------------------------------|
A|-------2-1-0---0-----------0-1-0-1-2-2-2-2-2-2-2-2-2-|
E|-------------3---3---0-3-4---------------------------|

                         E
Well I'm gonna make some money
                  E
I'm gonna buy you everything you ever did want
                           A
And it's bound to ruin ya, honey
                  E
But you shouldn't steal what you never could hoard

                     E
And I'm gonna be the fastest
                E
I'm gonna be so quick that you're never quite sure
                          A
If you're tough enough to last this
                        E
'Cause when you got the Halloween blues, there's a guaranteed cure


A7
Let 'em all, let 'em all, let 'em all, let 'em all
E7
Let 'em all shiver and let them all shake
A7
Get 'em all, get 'em all, get 'em all, get 'em
E7
Get them hysterical, keep them awake


                    E
Well I'm gonna be imperious
                 E
I'm gonna be the next Harry Belafonte
                     A
You might as well be serious
                  E
If you've got the answers, you might as well say
                           E
There'll be no one who can thrill me
                   E
There's not a soul alive's got a half of my brains
                              A
But they'll try their best to kill me
                        E
'Cause when you got the Halloween blues, it's best to complain

A7
Let 'em all, let 'em all, let 'em all, let 'em all
E7
Let 'em all shiver and let them all shake
A7
Get 'em all, get 'em all, get 'em all, get 'em
E7
Get them hysterical, keep them awake

[leading into the little drum bit:]
e|----------------------------------------|
B|----------------------------------------|
G|----------------------------------------|
D|-2-1-0----------------------------------|
A|-------------2-1-0----------------------|
E|------------------------2-2-2-2--2--0-2-|

[little drum bit]
[bass comes in]

e|-----------------------0-|
B|-----------------------0-|
G|-----------------------1-|
D|-2-1-0-----------------2-| Repeat this a few times
A|-------2-1-0-----------2-|
E|-------------3b--0--0--0-|

[Play this during the little jazzy bit:]
A E A E A E A E
[Then go back into "Let 'em all, let 'em all..."]

A7
Let 'em all, let 'em all, let 'em all, let 'em all
E7
Let them all shiver and let them all shake
A7
Get 'em all, get 'em all, get 'em all, get 'em all,
A7
Get 'em all, get 'em all, get 'em all, got 'em all

E7
Let 'em all shiver and them all shake
A7
Get 'em all, get 'em all, get 'em all, get 'em
E7
Get them hysterical, keep them awake
Добавлено: 24.11.2015
Другие материалы по этой песне:
  • Аккорды и текст

Страница создана 21.11.2013
http://primanota.ru/the-fratellis/halloween-blues-chords.htm
Привет, Гость.
Предлагаем пройти революционный курс по гитаре.
Подарок от PrimaNota.Ru, забирай!