PrimaNota.ru - самый крупный в мире бесплатный архив песенных текстов, аккордов, табулатур и нот


The Fratellis - Everybody Knows You Cried Last Night - текст песни, таба, бас-таба, видео

Регистрация Запомнить меня
Войти через:  Facebook Google Twitter Vk Yandex Mail.ru

The Fratellis - Everybody Knows You Cried Last Night - текст песни, таба, бас-таба, видео

Печатать
Просмотров: 353
Авторы музыки: The Fratellis

-------------------------------------------------------------------------------
		Everybody Knows You Cried Last Night - Fratellis
-------------------------------------------------------------------------------
Tabbed by: Aron S
Email: goodsum@hotmail.com

Tuning: Standard

Intro:

e|------------------------|
B|------------------------|
G|------------------------|
D|------------------------|
A|----------10------------|
E|--6/8-8-8----8--10-8\5--|


Verse:

(Guitar 1)
e|------------------------|------------------|------------------------|
B|----------(x4)----------|-------(x2)-------|----------(x2)----------|
G|------------------------|------------------|------------------------|
D|------------------------|------------------|------------------------|
A|----------10------------|--------3---------|----------10------------|
E|--6/8-8-8----8--10-8\5--|--1-1-1---1--3-1--|--6/8-8-8----8--10-8\5--|

e|------------------|
B|-------(x2)-------|
G|------------------|
D|------------------|
A|--------2---------|
E|--0-0-0---0--2-0--|


(Guitar 2)
e|--------------|-------------|--------------|-------------|
B|------(x4)----|----(x2)-----|-----(x2)-----|----(x2)-----|
G|--------------|-------------|--------------|-------------|
D|--10-10---10--|--3--3----3--|--10-10---10--|--2--2----2--|
A|--10-10---10--|--3--3----3--|--10-10---10--|--2--2----2--|
E|--8--8----8---|--1--1----1--|--8--8----8---|--0--0----0--|


Chorus:

e|-------------------|
B|-------------------|
G|-------------------|
D|--7-7-6-6-5-5-4-4--| x4
A|--7-7-6-6-5-5-4-4--|
E|--5-5-4-4-3-3-2-2--|

e|------(x3)-----|--------------|------(x3)-----|-------------|
B|---------------|--------------|---------------|-------------|
G|----------5-5--|--7--7--7--7--|----------5-5--|-7--7--------|
D|--3--3-3--5-5--|--7--7--7--7--|--3--3-3--5-5--|-7--7--3--5--|
A|--3--3-3--3-3--|--5--5--5--5--|--3--3-3--3-3--|-5--5--3--5--|
E|--1--1-1-------|--------------|--1--1-1-------|-------1--3--|


Solo:

e|--------------------------------------------------------------|
B|--------------------------------------------------------------|
G|--------------------------------------------------------------|
D|---------------------8h9h10--------------8h10p8---------------|
A|--------------8-9-10----------------------------10-8h10p8-----|
E|--8-8-8-11-11----------------8-8-8-11-11------------------11--|

e|------------------------------------------------------------------|
B|------------------------------------------------------------------|
G|-----------------------------------------10h12p10----12p10--------|
D|---------------------8h9h10-----------------------12-------12-10--|
A|--------------8-9-10----------------------------------------------|
E|--8-8-8-11-11----------------8-8-8-11-11--------------------------|

e|--------------------------------------------------------------|
B|--------------------------------------------------------------|
G|--------------------------------------------------------------|
D|---------------------8h9h10--------------8h10p8---------------|
A|--------------8-9-10----------------------------10-8h10p8-----|
E|--8-8-8-11-11----------------8-8-8-11-11------------------11--|

e|------------------------------------------------------------------|
B|------------------------------------------------------------------|
G|-----------------------------------------10h12p10----12p10--------|
D|---------------------8h9h10-----------------------12-------12-10--|
A|--------------8-9-10----------------------------------------------|
E|--8-8-8-11-11----------------8-8-8-11-11--------------------------|

e|----------------------------------------------------------|
B|----------------------------------------------------------|
G|------------------------14----------14---14^----------14--|
D|--12^-10-12^-12^-10--12----12h14-12----------12h14-12-----|
A|----------------------------------------------------------|
E|----------------------------------------------------------|

e|----------------------------------------------------------|
B|----------------------------------------------------------|
G|--14-12----------14-12----------14-12-----14-12-----------|
D|--------15-14-12-------15-14-12-------15--------15-14-12--|
A|----------------------------------------------------------|
E|----------------------------------------------------------|

e|---------------------------------------------------------------------------|
B|---------------------------------------------------------------------------|
G|--8h10p8---------8-----------------------------------------8h10p8----8p6---|
D|---------11-10-8---11-10-8----8-----------------8----8-10--------10-----7--|
A|---------------------------10---10-8-------8-10---10-----------------------|
E|--------------------------------------8-11---------------------------------|



| ^  bend note
| /  slide up
| \  slide down
| h  hammer-on
| p  pull-off
| ~  vibrato
| +  harmonic
| x  Mute note
===============================================================================
Добавлено: 29.07.2013
Другие материалы по этой песне:
  • Аккорды и текст

Страница создана 17.04.2012
http://primanota.ru/the-fratellis/everybody-knows-you-cried-last-night-chords.htm
Привет, Гость.
Предлагаем пройти революционный курс по гитаре.
Подарок от PrimaNota.Ru, забирай!