PrimaNota.ru - самый крупный в мире бесплатный архив песенных текстов, аккордов, табулатур и нот


The Fourmost - Baby I Need Your Loving - бас-таба, видео

Регистрация Запомнить меня
Войти через:  Facebook Google Twitter Vk Yandex Mail.ru

The Fourmost - Baby I Need Your Loving - бас-таба, видео

Печатать
Просмотров: 86
Авторы музыки: Lamont Dozier, Brian Holland
Авторы текста: Edward Holland, Jr.
Baby I Need Your Loving
The Fourmost
Written by Lamont Dozier, Eddie Holland and Brian Holland; released as a 
single with "That's Only What They Say" as the B-side.

Intro:
G|------- ------- ------- -------|------- ------- ------- -------|
D|-------------------------------|-------------------------------|
A|-------------------------------|-------------------------------|
E|-------------------------------|-------------------------------|
                                                 (drums)


G|------- ------- ------- -------|------- ------- ------- -------|
D|-------------------------------|-------------------------------|
A|-------------------------------|-------------------------------|
E|6------------------------------|4-----------------------4------|
              O - o - o - o - o       -       o - o - oh


G|------- ------- ------- -------|------- ------- ------- -------|
D|-------------------------------|-------------------------------|
A|-------------------------------|-------------------------------|
E|6------------------------------|4-----------------------4------|
              O - o - o - o - o       -       o - o - oh

Verse:
G|------- ------- ------- -------|------- ------- ------- -------|
D|-------------------------------|----------------8-------6------|
A|----------------8---8----------|6-----------6---------------8--|
E|6-----------6-----------6------|-------------------------------|
              Ba  -   by,     I   need your   loving,
                                                     (I   really

G|------- ------- ------- -------|------- ------- ------- -------|
D|-------------------------------|----------------8---8---6------|
A|----------------8---8----------|6-----------6---------------8--|
E|6-----------6-----------6------|-------------------------------|
              ba  -   by,     I   need your   loving,
  need    you,                ooooooooooooooooooooh,  I   really

G|------- ------- ------- -------|------- ------- ------- -------|
D|-------------------------------|----------------8---8---6------|
A|----------------8---8----------|6-----------6---------------8--|
E|6-----------6-----------6------|-------------------------------|
                  Although you're ne- ver     near,
  need    you,                ooooooooooooooooooooh,  I   really

G|------- ------- ------- -------|------- ------- ------- -------|
D|-------------------------------|----------------8-------6------|
A|----------------8-----------5--|6-----------6---------------8--|
E|6-----------6-----------6------|-------------------------------|
                  your voice  I   often   hear.
  need    you,                ooooooooooooooooooooh,  I   really

G|------- ------- ------- -------|------- ------- ------- -------|
D|-------------------------------|----------------8-------6------|
A|----------------8-----------5--|6-----------6---------------8--|
E|6-----------6-----------6------|-------------------------------|
              An- other day,  an- other night,
  need    you,                ooooooooooooooooooooh,  I   really

G|------- ------- ------- -------|------- ------- ------- -------|
D|-------------------------------|----------------8-------6------|
A|----------------8---8-------5--|6-----------6---------------8--|
E|6-----------6-----------6------|-------------------------------|
              I   long        to      hold you tight.
  need    you,                ooooooooooooooooooooh)
Refrain:
G|------- ------- ------- -------|------- ------- ------- -------|
D|6-----------6-----------5---6--|-------------------------------|
A|----------------6---6----------|8-----------8-----------6---8--|
E|-------------------------------|----------------8--------------|
          Ba    -     by, I   need        your    lo  -   ving,


G|------- ------- ------- -------|------- ------- ------- -------|
D|-------------------------------|-------------------------------|
A|6-----------6-----------5---6--|3-----------3------------------|
E|----------------6--------------|----------------3---3---6---8--|
          got         to have all         your    lo  -   ving,


G|------- ------- ------- -------|------- ------- ------- -------|
D|6-----------6-----------5---6--|-------------------------------|
A|----------------6---6----------|8-----------8-----------6---8--|
E|-------------------------------|----------------8---8----------|
          Ba    -     by, I   need        your    lo  -   ving,


G|------- ------- ------- -------|------- ------- ------- -------|
D|-------------------------------|-------------------------------|
A|6-----------6-----------5---6--|3-----------3------------------|
E|----------------6--------------|----------------3---3---6---8--|
          got         to have all         your    lo  -   ving.

Verse:
G|------- ------- ------- -------|------- ------- ------- -------|
D|-------------------------------|----------------8-------6------|
A|----------------8---8----------|6-----------6---------------8--|
E|6-----------6-----------6------|-------------------------------|
                  Some say        it's a sign of weakness
  ooooooooooooooooooooooooooooooooooooooooooooooooooooooooooooooo

G|------- ------- ------- -------|------- ------- ------- -------|
D|-------------------------------|----------------8-------6------|
A|----------------8---8----------|6-----------6---------------8--|
E|6-----------6-----------6------|-------------------------------|
                  for a man    to beg,
  ooooooooooooooooooooooooooooooooooooooooooooooooooooooooooooooo

G|------- ------- ------- -------|------- ------- ------- -------|
D|-------------------------------|----------------8-------6------|
A|----------------8---8-------5--|6-----------6---------------8--|
E|6-----------6-----------6------|-------------------------------|
              And weak    I'd     rather be,
  ooooooooooooooooooooooooooooooooooooooooooooooooooooooooooooooo

G|------- ------- ------- -------|------- ------- ------- -------|
D|-------------------------------|----------------8-------6------|
A|----------------8---8-------5--|6-----------6---------------8--|
E|6-----------6-----------6------|-------------------------------|
              if it means having you to keep.
  oooooooooooooooooooooooooooooooooooooooooooooooo
Refrain:
G|------- ------- ------- -------|------- ------- ------- -------|
D|6-----------6-----------5---6--|-------------------------------|
A|----------------6---6----------|8-----------8-----------6---8--|
E|-------------------------------|----------------8--------------|
          Ba    -     by, I   need        your    lo  -   ving,


G|------- ------- ------- -------|------- ------- ------- -------|
D|-------------------------------|-------------------------------|
A|6-----------6-----------5---6--|3-----------3------------------|
E|----------------6---6----------|----------------3---3---6---8--|
          got         to have all         your    lo  -   ving,


G|------- ------- ------- -------|------- ------- ------- -------|
D|6-----------6-----------5---6--|-------------------------------|
A|----------------6---6----------|8-----------8-----------6---8--|
E|-------------------------------|----------------8---8----------|
          Ba    -     by, I   need        your    lo  -   ving,


G|------- ------- ------- -------|------- ------- ------- -------|
D|-------------------------------|-------------------------------|
A|6-----------6-----------5---6--|3-----------3------------------|
E|----------------6--------------|----------------3---3---6---8--|
          got         to have all         your    lo  -   ving.

Bridge:
G|------- ------- ------- -------|------- ------- ------- -------|
D|-------------------------------|-------------------------------|
A|-------------------------------|-------------------------------|
E|6------------------------------|4-----------------------4------|
                  Eve  -  ry  night       I       call    your
             (O - o - o - o - o       -       o - o - oh)

G|------- ------- ------- -------|------- ------- ------- -------|
D|-------------------------------|-------------------------------|
A|-------------------------------|-------------------------------|
E|6------------------------------|4-----------------------4------|
  name,                                   Oh,     sometimes   I
             (O - o - o - o - o       -       o - o - oh)

G|------- ------- ------- -------|------- ------- ------- -------|
D|-------------------------------|-------------------------------|
A|-------------------------------|-------------------------------|
E|6------------------------------|4-----------------------4------|
  wonder,                                 will I  ever    be the
             (O - o - o - o - o       -       o - o - oh)

G|------- ------- ------- -------|------- ------- ------- -------|
D|-------------------------------|-------------------------------|
A|-------------------------------|-------------------------------|
E|6-----------------------6------|4-----------------------4------|
  same,                               oh,     yes!
             (O - o - o - o - o       -       o - o - oh)
Verse:
G|------- ------- ------- -------|------- ------- ------- -------|
D|-------------------------------|-------------------------------|
A|-------------------------------|--------8---6-------6-------6--|
E|6-----------------------6------|4-----------------------8------|
      When you see me             smiling,
                                         (I   need    you,    I
                                                              ooo
G|------- ------- ------- -------|------- ------- ------- -------|
D|-------------------------------|----------------8---8---6------|
A|----------------8---8----------|6-----------6---------------8--|
E|6-----------6-----------6------|-------------------------------|
                  things              have gone worse,
  want    you,    ba  -   by,         and I   need    you, and I
  ooooooooooooooooooooooooooooooooooooooooooooo                ooo
G|------- ------- ------- -------|------- ------- ------- -------|
D|-------------------------------|----------------8---8---6------|
A|----------------8---8----------|6-----------6---------------8--|
E|6-----------6-----------6------|-------------------------------|
                  Any smile           you might see
  love    you,    ba  -   by,         and I   need    you, and I
  ooooooooooooooooooooooooooooooooooooooooooooo                ooo
G|------- ------- ------- -------|------- ------- ------- -------|
D|-------------------------------|----------------8-------6------|
A|----------------8---8-------5--|6-----------6---------------8--|
E|6-----------6-----------6------|-------------------------------|
                  has all             been rehearsed.
  want    you,    ba  -   by,         and I   need    you, and I
  ooooooooooooooooooooooooooooooooooooooooooooo                ooo
G|------- ------- ------- -------|------- ------- ------- -------|
D|-------------------------------|----------------8---8---6------|
A|----------------8---8-------5--|6-----------6---------------8--|
E|6-----------6-----------6------|-------------------------------|
                  Darling, I          can't go on without you,
  love    you,    ba  -   by,         and I   need    you, and I
  ooooooooooooooooooooooooooooooooooooooooooooo                ooo
G|------- ------- ------- -------|------- ------- ------- -------|
D|-------------------------------|----------------8-------6------|
A|----------------8---8-------5--|6-----------6---------------8--|
E|6-----------6-----------6------|-------------------------------|
              this emptiness won't let me live without you.
  want    you,    ba  -   by,         and I   need    you)
  ooooooooooooooooooooooooooooooooooooooooooooo
Refrain:
G|------- ------- ------- -------|------- ------- ------- -------|
D|6-----------6-----------5---6--|-------------------------------|
A|----------------6---6----------|8-----------8-----------6---8--|
E|-------------------------------|----------------8---8----------|
          Ba    -     by, I   need        your    lo  -   ving,


G|------- ------- ------- -------|------- ------- ------- -------|
D|-------------------------------|-------------------------------|
A|6-----------6-----------5---6--|3-----------3------------------|
E|----------------6--------------|----------------3-------6---8--|
          got         to have all         your    lo  -   ving,


G|------- ------- ------- -------|------- ------- ------- -------|
D|6-----------6-----------5---6--|-------------------------------|
A|----------------6---6----------|8-----------8-----------6---8--|
E|-------------------------------|----------------8---8----------|
          Ba    -     by, I   need        your    lo  -   ving,


G|------- ------- ------- -------|------- ------- ------- -------|
D|-------------------------------|-------------------------------|
A|6-----------6-----------5---6--|3-----------3------------------|
E|----------------6--------------|----------------3---3---6---8--|
          got         to have all         your    lo  -   ving.

Outro:
G|------- ------- ------- -------|------- ------- ------- -------|
D|6-----------6-----------5---6--|-------------------------------|
A|----------------6---6----------|8-----------8-----------6---8--|
E|-------------------------------|----------------8---8----------|
          Ba    -     by, I   need        your    lo  -   ving,


G|------- ------- ------- -------|------- ------- ------- -------|
D|-------------------------------|-------------------------------|
A|6-----------6-----------5---6--|3-----------3------------------|
E|----------------6---6----------|----------------3-------6---8--|
          got         to have all         your    lo  -   ving.
fade out...

Please e-mail me for any corrections, or write a comment.
Добавлено: 07.10.2013
Другие материалы по этой песне:
  • Аккорды и текст

Страница создана 07.10.2013
http://primanota.ru/the-fourmost/baby-i-need-your-loving-chords.htm
Привет, Гость.
Предлагаем пройти революционный курс по гитаре.
Подарок от PrimaNota.Ru, забирай!