PrimaNota.ru - самый крупный в мире бесплатный архив песенных текстов, аккордов, табулатур и нот


The Forecast - West Coast - текст песни, таба, бас-таба, видео

Регистрация Запомнить меня
Войти через:  Facebook Google Twitter Vk Yandex Mail.ru

The Forecast - West Coast - текст песни, таба, бас-таба, видео

Печатать
Просмотров: 191
Tabbed by: Jake Allen

Tuning: Standard (EADGBE)

/ slide up
\ slide down
~ let chord ring out

Intro
Guitar I (0:00-0:11)                           
e----------------------------------------------|
b----------------------------------------------|
g----------------------------------------------|
d-----------------4-4-4-----2-2----------------|      4x    
a-----------------------------------2-2-5-5----|
e--15/3-1x--3-3-3-------3-3-----3-3------------|

(0:11-0:22)
e----------------------------------------------|
b-------2-2-2----------------------------------|
g---------------4-4------2-2-------------------|
d---------------------4-4----------------------|      4x    
a----------------------------------------------|
e--3-3-3-----3-3---3-3-------------------------|

Intro
Guitar 2
                 Starts on 2x (0:03-0:22)
e----------------------------------------------|
b----------------------------------------------|
g----------------------------------------------|   
d--4\7/4-0-4\5/4-------------------------------|     4x
a----------------------------------------------|
e----------------------------------------------|

"The sun is peeking over the ocean..."
Verse
Guitar 1 & 2 (0:22-0:44)
e----------------------------------------------|
b-3-----3------3~----3~------------------------|
g----------------------------------------------|
d---10x---10x----1x----1x----------------------|      2x
a-2-----3--------------------------------------|
e--------------3~----2~------------------------|

"It's a long drive for a long goodbye..."
(0:44-0:49)
e--------------------|
b-3-----3------------|
g--------------------|
d---10x---10x--------|      1x
a-2-----3------------|
e--------------------|

Repeat intro
Guitar 1 (0:50-1:00)
e----------------------------------------------|
b-------2-2-2----------------------------------|
g---------------4-4------2-2-------------------|
d---------------------4-4----------------------|      4x    
a----------------------------------------------|
e--3-3-3-----3-3---3-3-------------------------|

Guitar 2 - Pick Slide after 1x

"My words are worthless and vaguely painted red..."
Verse 
Guitar 1 & 2 (1:01-1:33)
e----------------------------------------------|
b-3-----3------3~----3~------------------------|
g----------------------------------------------|
d---10x---10x----1x----1x----------------------|      3x
a-2-----3--------------------------------------|
e--------------3~----2~------------------------|

"Stay away boy, stay away, will you stay away boy, stay away..."
Chorus 
Guitar 1 & 2 (1:34-1:54)
e------------------|
b------------------|
g-5--7--9--7-------|
d-5--7--9--7-------|      2x
a-3--5--7--5-------|
e------------------|

"my heart is, my heart is, my heart is an empty room..."
(1:55-2:15)
e------------------|
b------------------|
g-5~--7~--9~--7~---|
d-5~--7~--9~--7~---|      2x
a-3~--5~--7~--5~---|
e------------------|

Bridge (2:16-2:18)
e------------------|
b-3----3----3------|
g------------------|
d---4x---4x---2x---|      1x
a-3----3----3------|
e------------------|

"Stay away boy, stay away, will you stay away boy, stay away..."
Chorus 
Guitar 1 & 2 (2:19-3:01)
e------------------|
b------------------|
g-5--7--9--7-------|
d-5--7--9--7-------|      4x
a-3--5--7--5-------|
e------------------|

"My heart is, my heart is, my heart is an empty room..."
Bridge (3:02-3:22)
e------------------|
b------------------|
g-5~--7~--9~--7~---|
d-5~--7~--9~--7~---|      2x
a-3~--5~--7~--5~---|
e------------------|

End on (3:23-3:31)
e--------|
b--------|
g---5~---|
d---5~---|
a---3~---|
e--------|


Any questions, concerns or corrections, just email me at jaallen@siue.edu. 

Lyrics
"the sun is peeking over the ocean
and I can't remember how this felt 
but now I know you have to blur the lines 
we're waiting for fate to open up our eyes 
it's a long drive for a long goodbye 
my words are worthless and vaguely painted red 
what did you say to me boy 
you have nothing left to prove 
then what are you running from my dear 
secrets I've packed away that I can't even explain 
we can talk this out 
we can talk this out 
no we can't so
stay away boy 
stay away 
will you stay away boy?
stay away 
stay away boy 
stay away 
can you stay away boy?
stay away 
my heart is, my heart is, my heart is an empty room 
my heart is, my heart is, my heart is an empty room 
stay away boy 
stay away 
will you stay away boy?
stay away 
stay away boy 
stay away 
can you stay away boy?
stay away 
can you tell me how we came to this 
so broken we never could be fixed 
how our memories just seem to swell
the west coast is growing old 
while we are sitting growing cold and now it seems all we have left to do is sing 
my heart is, my heart is, my heart is an empty room 
my heart is, my heart is, my heart is an empty room"
Добавлено: 20.04.2012
Другие материалы по этой песне:
  • Аккорды и текст

Страница создана 01.04.2012
http://primanota.ru/the-forecast/west-coast-chords.htm
Привет, Гость.
Предлагаем пройти революционный курс по гитаре.
Подарок от PrimaNota.Ru, забирай!