PrimaNota.ru - самый крупный в мире бесплатный архив песенных текстов, аккордов, табулатур и нот


The Force - Futrama Theme - таба, видео

Регистрация Запомнить меня
Войти через:  Facebook Google Twitter Vk Yandex Mail.ru

The Force - Futrama Theme - таба, видео

Печатать
Просмотров: 34
-------------------------------------------------------------------------------
                            Futrama Theme - Force
-------------------------------------------------------------------------------
Tabbed by:Andres Hernandez
E-mail:andreshp09@gmail.com

Tuning:Standerd

e|---------------------------------------------------------------------------|
B|---------------------------------------------------------------------------|
G|----------2-2---------------------2-2------------------------2-1-----------|
D|---2--2---------0--0---2-2--2--2-------0--0---5-5-4--2---2--------0---0----|
A|---------------------------------------------------------------------------|
E|---------------------------------------------------------------------------|

e|---------------------------------------------------------------------------|
B|---------------0--0--------------------------------------------------------|
G|-----------2-1-------------------------------------------------------------|
D|---4-2--2-----------5-5-4-4------------------------------------------------|
A|---------------------------------------------------------------------------|
E|---------------------------------------------------------------------------|
Добавлено: 02.01.2016
Вам также может быть интересно:
Другие материалы по этой песне:
  • Аккорды и текст

Страница создана 02.01.2016
http://primanota.ru/the-force/futrama-theme-chords.htm
Привет, Гость.
Предлагаем пройти революционный курс по гитаре.
Подарок от PrimaNota.Ru, забирай!