PrimaNota.ru - самый крупный в мире бесплатный архив песенных текстов, аккордов, табулатур и нот


The Flesh Eaters - So Long - таба, видео

Регистрация Запомнить меня
Войти через:  Facebook Google Twitter Vk Yandex Mail.ru

The Flesh Eaters - So Long - таба, видео

Печатать
Просмотров: 75
-----------------------------------------------------------------------------
                             SO LONG - The Flesh Eaters
-----------------------------------------------------------------------------
Tabbed by: Tyler
E-mail: hill.tyler63@yahoo.com

Tuning: Standard

Intro/verses 1 & 3
   E
e|-0---0---0-----------------------------------------------------------------|
B|-0---0---0-----------------------------------------------------------------|
G|-1---1---1-----------------------------------------------------------------|
D|-2---2---2-----------------------------------------------------------------|
A|-2---2---2-----------------------------------------------------------------|
E|-0---0---0-----------------------------------------------------------------|

Chorus 1
   D       A
e|---------------------------------------------------------------------------|
B|-7-----77------------------------------------------------------------------|
G|-7-----776------66---------------------------------------------------------|
D|-7-----777------77---------------------------------------------------------|
A|-5-----557------77---------------------------------------------------------|
E|---------5------55---------------------------------------------------------|

Verse 2
   D
e|-2---2---2-----------------------------------------------------------------|
B|-3---3---3-----------------------------------------------------------------|
G|-2---2---2-----------------------------------------------------------------|
D|-0---0---0-----------------------------------------------------------------|
A|---------------------------------------------------------------------------|
E|---------------------------------------------------------------------------|

Chorus 2
   E       B                  G       D                  E       B
e|----------------------------------------------------------------------------|
B|-9-----99---------------------------7-----77-----------9-----99-------------|
G|-9-----998------88----------4-----447-----77-----------9-----998-----88-----|
D|-9-----999------99--x4 then-5-----557-----77--x4 then--9-----999-----99-----|x4
A|-7-----779------99----------5-----555-----55-----------7-----779-----99-----|
E|---------7------77----------3-----33---------------------------7-----77-----|

It is beyond my ability as a transcriber to figure out the solo at the
end. Sorry.
Добавлено: 17.10.2013
Вам также может быть интересно:
Другие материалы по этой песне:
  • Аккорды и текст

Страница создана 17.10.2013
http://primanota.ru/the-flesh-eaters/so-long-chords.htm
Привет, Гость.
Предлагаем пройти революционный курс по гитаре.
Подарок от PrimaNota.Ru, забирай!