PrimaNota.ru - самый крупный в мире бесплатный архив песенных текстов, аккордов, табулатур и нот


The Flesh Eaters - River Of Fever - таба, видео

Регистрация Запомнить меня
Войти через:  Facebook Google Twitter Vk Yandex Mail.ru

The Flesh Eaters - River Of Fever - таба, видео

Печатать
Просмотров: 100
Уроки эстрадного вокала в Санкт-Петербурге
-----------------------------------------------------------------------------
                             RIVER OF FEVER - The Flesh Eaters
-----------------------------------------------------------------------------
Tabbed by: Tyler
e-mail: hill.tyler63@yahoo.com

Tuning: Standard

Whistled intro
e|---------------------------------------------------------------------------|
B|------------------7-------------------------------7------------------------|
G|-6-----6--8--9-------9--8--------6-----6--8--9-------9--8------------------|
D|---------------------------9-------------------------------9--9--9---------|
A|---------------------------------------------------------------------------|
E|---------------------------------------------------------------------------|

Part starting at 0:12
e|---------------------------------------------------------------------------|
B|-6------9------------------------------------------------------------------|
G|-6------9------5-----------------------------------------------------------|
D|-6------9------6-----------------------------------------------------------|
A|-4------7------6-----------------------------------------------------------|
E|---------------4-----------------------------------------------------------|

Part starting at 1:20
e|---------------------------------------------------------------------------|
B|-9-------12--11--11-11-11-------9-------7--8--8-8-8------------------------|
G|-9-------12--11--11-11-11-------9-------7--8--8-8-8------------------------|
D|-9--x10--12--11--11-11-11--then-9--x10--7--8--8-8-8------------------------|
A|-7-------10--9---9--9--9--------7-------5--6--6-6-6------------------------|
E|---------------------------------------------------------------------------|

Part starting at 2:17
e|---------------------------------------------------------------------------|
B|---------------------------------------------------------------------------|
G|-8-------11--10--10-10-10-------8-------6--7--7-7-7------------------------|
D|-9--x10--12--11--11-11-11--then-9--x10--7--8--8-8-8------------------------|
A|-9-------12--11--11-11-11-------9-------7--8--8-8-8------------------------|
E|-7-------10--9---9--9--9--------7-------5--6--6-6-6------------------------|

Solo
e|--------------9------------------------------------------------------------|
B|-9--9-11-12-----12-11-------[-9p7------------------------------------------|
G|----------------------11b--------8--]--------------------------------------|
D|---------------------------------------------------------------------------|
A|---------------------------------------------------------------------------|
E|---------------------------------------------------------------------------|
The bend is very small. It isn't even a half. The last time around don't play
the bracketed part.

2:49
e|---------------------------------------------------------------------------|
B|-6------9------------------------------------------------------------------|
G|-6------9------5-----------------------------------------------------------|
D|-6--x4--9--x4--6--x8-------------------------------------------------------|
A|-4------7------6-----------------------------------------------------------|
E|---------------4-----------------------------------------------------------|

************************************

| /   slide up
| \   slide down
| h   hammer-on
| p   pull-off
| ~   vibrato
| +   harmonic
| x   Mute note
| b   Bend
| pb  Pre-bend
| br  Bend release
| pbr Pre-bend release
| brb Bend release bend

************************************
Добавлено: 06.06.2013
Другие материалы по этой песне:
  • Аккорды и текст

Страница создана 06.06.2013
http://primanota.ru/the-flesh-eaters/river-of-fever-chords.htm
Привет, Гость.
Предлагаем пройти революционный курс по гитаре.
Подарок от PrimaNota.Ru, забирай!