PrimaNota.ru - самый крупный в мире бесплатный архив песенных текстов, аккордов, табулатур и нот


The Flatliners - Freds Got Slacks - текст песни, таба, бас-таба, видео

Регистрация Запомнить меня
Войти через:  Facebook Google Twitter Vk Yandex Mail.ru

The Flatliners - Freds Got Slacks - текст песни, таба, бас-таба, видео

Печатать
Просмотров: 137
Intro

e| |-5----------------------------------------------|
B| |-6----------------------------------------------|
G| |-7----------------------------------------------|
D| |-7----------------------------------------------|
A| |-5-----------3-1-0------------------------------|
E| |-x-----------------3-1-0------------------------|

Verse

 [GUITAR 1] Listen for rythem
e| |-5--5--5--5--5--5--5--5--1--1--1--1--6--6--6--6-|
B| |-6--6--6--6--6--6--6--6--1--1--1--1--6--6--6--6-|
G| |-7--7--7--7--7--7--7--7--2--2--2--2--7--7--7--7-|
D| |-7--7--7--7--7--7--7--7--3--3--3--3--8--8--8--8-|  x2
A| |-5--5--5--5--5--5--5--5--3--3--3--3--8--8--8--8-|
E| |-x--x--x--x--x--x--x--x--1--1--1--1--6--6--6--6-|
    


e| |-3--3--3--3--6--6--6--6--5--5--5--5--1--1--1--1-|
B| |-3--3--3--3--6--6--6--6--6--6--6--6--1--1--1--1-|
G| |-4--4--4--4--7--7--7--7--7--7--7--7--4--4--4--4-|
D| |-5--5--5--5--8--8--8--8--7--7--7--7--3--3--3--3-|
A| |-5--5--5--5--8--8--8--8--5--5--5--5--3--3--3--3-|
E| |-3--3--3--3--6--6--6--6--x--x--x--x--1--1--1--1-|
    

e| |-3--3--3--3--5--5--5--5--5-----------5----------|
B| |-3--3--3--3--5--5--5--5--6-----------6----------|
G| |-4--4--4--4--6--6--6--6--7-----------7----------|
D| |-5--5--5--5--7--7--7--7--7-----------7----------|
A| |-5--5--5--5--7--7--7--7--5-----------5----------|
E| |-3--3--3--3--5--5--5--5--x-----------x----------|
     

e| |-5--5--5--5--5--5--5--5--1--1--1--1--6--6--6--6-|
B| |-6--6--6--6--6--6--6--6--1--1--1--1--6--6--6--6-|
G| |-7--7--7--7--7--7--7--7--2--2--2--2--7--7--7--7-|
D| |-7--7--7--7--7--7--7--7--3--3--3--3--8--8--8--8-|  x2
A| |-5--5--5--5--5--5--5--5--3--3--3--3--8--8--8--8-|
E| |-x--x--x--x--x--x--x--x--1--1--1--1--6--6--6--6-|
    

e| |-3--3--3--3--6--6--6--6--5--5--5--5--1--1--1--1-|
B| |-3--3--3--3--6--6--6--6--6--6--6--6--1--1--1--1-|
G| |-4--4--4--4--7--7--7--7--7--7--7--7--4--4--4--4-|
D| |-5--5--5--5--8--8--8--8--7--7--7--7--3--3--3--3-|
A| |-5--5--5--5--8--8--8--8--5--5--5--5--3--3--3--3-|
E| |-3--3--3--3--6--6--6--6--x--x--x--x--1--1--1--1-|
    

e| |-3--3--3--3--5--5--5--5--6--6--6--6--8--8--8--8-|
B| |-3--3--3--3--5--5--5--5--6--6--6--6--8--8--8--8-|
G| |-4--4--4--4--6--6--6--6--7--7--7--7--9--9--9--9-|
D| |-5--5--5--5--7--7--7--7--8--8--8--8--10-10-10-10|
A| |-5--5--5--5--7--7--7--7--8--8--8--8--10-10-10-10|
E| |-3--3--3--3--5--5--5--5--6--6--6--6--8--8--8--8-|
    
 
[GUITAR 2] Let ring
e| |-5-----------------------1---------5--6---------|
B| |-6-----------------------1---------5--6---------|
G| |-7-----------------------2---------6--7---------|
D| |-7-----------------------3---------7--8---------|  x2
A| |-5-----------------------3---------7--8---------|
E| |-x-----------------------1---------5--6---------|
    

e| |-3-----------6-----------5--------3--1----------|
B| |-3------—----6-----------6--------3--1------—---|
G| |-4-----------7-----------7--------4--4----------|
D| |-5-----------8-----------7--------5--3----------|
A| |-5-----------8-----------5--------5--3----------|
E| |-3-----------6-----------x--------3--1----------|
    

    only let first two ring
e| |-3-----------5-----------5-----------5----------|
B| |-3-----------5-----------6-----------6----------|
G| |-4-----------6-----------7-----------7----------|
D| |-5-----------7-----------7-----------7----------|
A| |-5-----------7-----------5-----------5----------|
E| |-3-----------5-----------x-----------x----------|
    
e| |-5-----------------------1---------5--6---------|
B| |-6-----------------------1---------5--6---------|
G| |-7-----------------------2---------6--7---------|
D| |-7-----------------------3---------7--8---------|  x2
A| |-5-----------------------3---------7--8---------|
E| |-x-----------------------1---------5--6---------|
    

e| |-3-----------6-----------5--------3--1----------|
B| |-3------—----6-----------6--------3--1------—---|
G| |-4-----------7-----------7--------4--4----------|
D| |-5-----------8-----------7--------5--3----------|
A| |-5-----------8-----------5--------5--3----------|
E| |-3-----------6-----------x--------3--1----------|
    

e| |-3-----------5-----------6-----------8----------|
B| |-3-----------5-----------6-----------8----------|
G| |-4-----------6-----------7-----------9----------|
D| |-5-----------7-----------8-----------10---------|
A| |-5-----------7-----------8-----------10---------|
E| |-3-----------5-----------6-----------8----------|
    

Chorus

e| |------------------------------------------------|
B| |------------------------------------------------|
G| |-------------------------10-10-10-10-5--5--5--5-|
D| |-7--7--7--7--8--8--8--8--10-10-10-10-5--5--5--5-|
A| |-7--7--7--7--8--8--8--8--8--8--8--8--3--3--3--3-|
E| |-5--5--7--5--6--6--6--6-------------------------|
    

e| |------------------------------------------------|
B| |------------------------------------------------|
G| |------------------------------------------------|
D| |-7--7--7--7--8--8--8--8--3--x--x--x--3--x--x--x-|
A| |-7--7--7--7--8--8--8--8--3--x--x--x--3--x--x--x-|
E| |-5--5--7--5--6--6--6--6--1--x--x--x--1--x--x--x-|
    

e| |------------------------------------------------|
B| |------------------------------------------------|
G| |-------------------------10-10-10-10-5--5--5--5-|
D| |-7--7--7--7--8--8--8--8--10-10-10-10-5--5--5--5-|
A| |-7--7--7--7--8--8--8--8--8--8--8--8--3--3--3--3-|
E| |-5--5--7--5--6--6--6--6-------------------------|
   

Chorus endings

    Chorus 1 ending
e| |------------------------------------------------|
B| |------------------------------------------------|
G| |------------------------------------------------|
D| |-7--7--7--7--8--8--8--8--3----------------------|
A| |-7--7--7--7--8--8--8--8--3-----------3-1-0------|
E| |-5--5--7--5--6--6--6--6--1-----------------3-1-0|
   

    Chorus 2 and 3 endings
e| |------------------------------------------------|
B| |------------------------------------------------|
G| |------------------------------------------------|
D| |-7--7--7--7--8--8--8--8--3--x--x--x--3--x--x--x-|
A| |-7--7--7--7--8--8--8--8--3--x--x--x--3--x--x--x-|
E| |-5--5--7--5--6--6--6--6--1--x--x--x--1--x--x--x-| 

Bridge

e| |------------------------------------------------|
B| |------------------------------------------------|
G| |-------------------------------------5----------|
D| |-7-----------8-----------3-----------5----------|  x2
A| |-7-----------8-----------3-----------3----------|
E| |-5-----------6-----------1----------------------|
    

e| |------------------------------------------------|
B| |------------------------------------------------|
G| |-------------------------------------5--5--5--5-|
D| |-7--7--7--7--8--8--8--8--3--3--3--3--5--5--5--5-|  x2
A| |-7--7--7--7--8--8--8--8--3--3--3--3--3--3--3--3-|
E| |-5--5--5--5--6--6--6--6--1--1--1--1-------------|


Outro

e| |------------------------------------------------|
B| |------------------------------------------------|
G| |------------------------------------------------|
D| |-5--5--5--5--7--7--7--7--8--8--8--8--10-10-10-10|
A| |-5--5--5--5--7--7--7--7--8--8--8--8--10-10-10-10| x 2
E| |-3--3--3--3--5--5--5--5--6--6--6--6--8--8--8--8-|

e| |-5-----------------------------------5----------|
B| |-6-----------------------------------6----------|
G| |-7-----------------------------------7----------|
D| |-7-----------------------3-1-0-------7----------|
A| |-5-----------------------------3-1-0-5----------|
E| |-x-----------------------------------x----------|
Добавлено: 20.06.2012
Другие материалы по этой песне:
  • Аккорды и текст

Страница создана 02.06.2012
http://primanota.ru/the-flatliners/freds-got-slacks-chords.htm
Привет, Гость.
Предлагаем пройти революционный курс по гитаре.
Подарок от PrimaNota.Ru, забирай!