PrimaNota.ru - самый крупный в мире бесплатный архив песенных текстов, аккордов, табулатур и нот


The Finches - Daniels Song - таба, видео

Регистрация Запомнить меня
Войти через:  Facebook Google Twitter Vk Yandex Mail.ru

The Finches - Daniels Song - таба, видео

Печатать
Просмотров: 61
This is a guitar tab for "Daniel's Song" by The Finches. I do not own this music.
Standard tuning
Capo fret 1

Intro                                                          Verse
C                 G                 C              G           Daniel you can
E----1--1----1--1----3--3----3--3-----1--1----1--1----3--3-3---3---3----|
B------0-------0-------0-------0--------0-------0------0----------------|
G-----0-------0-------0-------0--------0-------0-------0----------------|
D----2--2----2--2----0--0----0--0-----2--2----2--2----0--0--------------|
A-3----0--023--0-022------022-----023---0--023--0--022------0---0---0---|
E----------------------3-------3------------------------3----3---3---3--|

  take the bus   but if you're not feeling right  I can pick you up cause I
E---1-------1-------1--------1--------3-----3--3---3----3--------1--------1-|
B---------0---------------0---------------0------0----0---0------------0----|
G------0---------------0----------------0---------------------------0-------|
D---2-------2-------2--------2--------0-----0--------------------2--------2-|
A-3-----------2--3---------------2-2-------------------------2-3------------|
E---------------------------------------------3----3----3---3---------------|

                                 Chorus
      I kinda like to drive      From my window I see signs    They stand
E-----1-----1-------------3--3--3-------------1----1-------3--3-----------|
B---------0-----------------0-0--0---------------0-----------0------------|
G-------0------------------0--------------------0-----------0-------------|
D-----2-----2-------------0--0----------------2----2-------0--0-----------|
A-2-3----------2--2-----------------------------------2---------------2---|
E------------------------------3---3---------------------3----------------|

  stapled to the road       I'll smile at you    Because we've tried
E--------1----1---2-2---2----------1-------1---------------3--------3-----|
B-----------0---------3---3-------------0------0-----------------0------0-|
G----------0--------2---2-------------0------0----------------0-------0---|
D--------2----2---0----------------2-------2---------------0--------0-----|
A---3-------------------------3---------------------2---------------------|
E-------------------------------------------------------------------------|

                             Verse
And lift our heavy load      Back at home with mom and dad... continue on
E----2-----2-----2-----2------------------------1-------1-|  with tab from
B-------3----3-----3-----3--------0------------------0----|   above verse
G---------2-----2-----2----2--2-------2-----0------0------|
D----0------------------------------------------2-------2-|
A---------------------------------------------------------|
E---------------------------------------------------------|

The song continues on following the same pattern for verses and chords here are the rest 
of the words:

Back at home
With mom and dad
Can be an awful time
So I've
Promised to do what I can
To try and make it nice

From my window I see stars
They swing low against the road
I'll smile at you
Because we've tried
And finally left our home

Oh, the going
It was much too slow
And we thought we never would arrive
Oh, but somehow life picked up the pace
Ran faster than the time
And we somehow survived

Waiting for the bus to come
Never seemed to last quite so long
Leaning on the rain to fall

Daniel, you can give me a call
I'll give you a ride
Добавлено: 17.09.2013
Другие материалы по этой песне:
  • Аккорды и текст

Страница создана 17.09.2013
http://primanota.ru/the-finches/daniels-song-chords.htm
Привет, Гость.
Предлагаем пройти революционный курс по гитаре.
Подарок от PrimaNota.Ru, забирай!