PrimaNota.ru - самый крупный в мире бесплатный архив песенных текстов, аккордов, табулатур и нот


The Field Mice - Willow - таба, видео

Регистрация Запомнить меня
Войти через:  Facebook Google Twitter Vk Yandex Mail.ru

The Field Mice - Willow - таба, видео

Печатать
Просмотров: 131
The Field Mice- Willow
Tabbed by Marcus K.


On the recording, a second guitar plays the bass note, but all of it can be played on one guitar.

--------------------------------------------------|
------4---2-4---4---2-4---4---2-4---4---2-4-------|
--------4---------4---------4---------4-----------|
----4---------4---------2--------2----------------|
--------------------------------------------------|
--------------------------------------------------|

---------------------------------------------------|
------4---2-4---4---2-4---4---2-4---4---2-4--------|
--------4---------4---------4---------4------------|
----4---------4---------2--------2-----------------|
---------------------------------------------------|
---------------------------------------------------|

---------------------------------------------------|
------4---2-4---4---2-4---4---4-2---4---4-2--------|
--------4---------4---------4---------4------------|
----6---------6---------4--------4-----------------|
---------------------------------------------------|
---------------------------------------------------|

--------------------------------------------------|
------4---2-4---4---2-4---4---2-4---4---2-4-------|
--------4---------4---------4---------4-----------|
----4---------4---------4--------4----------------|
--------------------------------------------------|
--------------------------------------------------|

This is repeated throughout the whole song.  Enjoy.
Добавлено: 23.04.2012
Другие материалы по этой песне:
  • Аккорды и текст

Страница создана 23.04.2012
http://primanota.ru/the-field-mice/willow-chords.htm
Привет, Гость.
Предлагаем пройти революционный курс по гитаре.
Подарок от PrimaNota.Ru, забирай!