PrimaNota.ru - самый крупный в мире бесплатный архив песенных текстов, аккордов, табулатур и нот


The Field Mice - Sensitive - бас-таба, видео

Регистрация Запомнить меня
Войти через:  Facebook Google Twitter Vk Yandex Mail.ru

The Field Mice - Sensitive - бас-таба, видео

Печатать
Просмотров: 23
Уроки эстрадного вокала в Санкт-Петербурге
Bass Start - 00:14


[Intro]

G|----------------|-----------------|-----------------|-----------------|-----------------|
D|--2-2-2-2-2-2-2-|-2-2-------------|-----------------|-2-2-------------|-----------------|
A|----------------|-----4-2-2-2-2-2-|-2-2-2-2-2-4-4-4-|-----4-2-2-2-2-2-|-2-2-2-2-2-4-4-4-|
E|----------------|-----------------|-----------------|-----------------|-----------------|


G|-----------------|-----------------|-----------------|-----------------|
D|-----------------|-----------------|-----------------|-----------------|
A|-----------------|-----------------|-----------------|-----------------|
E|-5-5-5-5-5-5-5-5-|-5-5-5-5-5-5-5-5-|-5-5-5-5-5-5-5-4-|-5-4-5-4-5-4-5-5-|


[Verse 1]

G|-----------------|-----------------|-----------------|-----------------| 
D|-----------------|-----------------|-2-2-------------|-----------------|
A|-2-2-2-2-2-2-2-2-|-2-2-2-2-2-4-4-4-|-----4-2-2-2-2-2-|-2-2-2-2-2-4-4-4-|
E|-----------------|-----------------|-----------------|-----------------|


G|-----------------|-----------------|-----------------|-----------------|
D|-2-2-------------|-----------------|-2-2-------------|-----------------|
A|-----4-2-2-2-2-2-|-2-2-2-2-2-4-4-4-|-----4-2-2-2-2-2-|-2-2-2-2-2-4-4-4-|
E|-----------------|-----------------|-----------------|-----------------|


G|-----------------|-----------------|-----------------|-----------------|
D|-----------------|-----------------|-----------------|-----------------|
A|-----------------|-----------------|-----------------|-----------------|
E|-5-5-5-5-5-5-5-5-|-5-5-5-5-5-5-5-5-|-5-5-5-5-5-5-5-4-|-5-4-5-4-5-4-5-5-|


G|-----------------|-----------------|-----------------|-----------------|
D|-----------------|-----------------|-2-2-------------|-----------------|
A|-2-2-2-2-2-2-2-2-|-2-2-2-2-2-4-4-4-|-----4-2-2-2-2-2-|-2-2-2-2-2-4-4-4-|
E|-----------------|-----------------|-----------------|-----------------|


[Verse 2]

G|-----------------|-----------------|-----------------|-----------------| (x2)
D|-2-2-------------|-----------------|-2-2-------------|-----------------|
A|-----4-2-2-2-2-2-|-2-2-2-2-2-4-4-4-|-----4-2-2-2-2-2-|-2-2-2-2-2-4-4-4-|
E|-----------------|-----------------|-----------------|-----------------|


G|-----------------|-----------------|-----------------|-----------------|
D|-----------------|-----------------|-----------------|-----------------|
A|-----------------|-----------------|-----------------|-----------------|
E|-5-5-5-5-5-5-5-5-|-5-5-5-5-5-5-5-5-|-5-5-5-5-5-5-5-4-|-5-4-5-4-5-4-5-5-|


G|-----------------|-----------------|-----------------|-----------------|
D|-----------------|-----------------|-2-2-------------|-----------------|
A|-2-2-2-2-2-2-2-2-|-2-2-2-2-2-4-4-4-|-----4-2-2-2-2-2-|-2-2-2-2-2-4-4-4-|
E|-----------------|-----------------|-----------------|-----------------|


[Chorus]

G|-----------------|-----------------|-----------------|-4-4-4-----------|
D|-5-5-5-5-5-5-5-5-|-5-5-5-5-5-5-5-5-|-7-7-7-7-7-7-7-7-|-------7-7-7-----|
A|-----------------|-----------------|-----------------|-------------7-7-|
E|-----------------|-----------------|-----------------|-----------------|


G|-----------------|-----------------|-4-4-4-4-4-4-4-4-|-7-4---4-4-4-----|
D|-4-4-4-4-4-4-4---|-4-4-4-4-4-4-7-7-|-----------------|-----7-------7-7-|
A|---------------7-|-----------------|-----------------|-----------------|
E|-----------------|-----------------|-----------------|-----------------|


G|-----------------|-----------------|-----------------|-4-4-4-----------|
D|-5-5-5-5-5-5-5-5-|-5-5-5-5-5-5-5-5-|-7-7-7-7-7-7-7-7-|-------7-7-7-----|
A|-----------------|-----------------|-----------------|-------------7-7-|
E|-----------------|-----------------|-----------------|-----------------|


G|-----------------|-----------------|-----------------|-----------------|
D|-4-4-4-4-4-4-4---|-4-4-4-----------|-----------------|-----------------|
A|---------------7-|-------7-7-7-5-5-|-2-2-2-2-2-2-2-2-|-2-2-2-2-2-2-2-2-|
E|-----------------|-----------------|-----------------|-----------------|


G|-----------------|-----------------|-----------------|-----------------|
D|-----------------|-----------------|-2-2-------------|-----------------|
A|-2-2-2-2-2-2-2-2-|-2-2-2-2-2-4-4-4-|-----4-2-2-2-2-2-|-2-2-2-2-2-4-4-4-|
E|-----------------|-----------------|-----------------|-----------------|


[Verse 3]

G|-----------------|-----------------|-----------------|-----------------| (x2)
D|-2-2-------------|-----------------|-2-2-------------|-----------------|
A|-----4-2-2-2-2-2-|-2-2-2-2-2-4-4-4-|-----4-2-2-2-2-2-|-2-2-2-2-2-4-4-4-|
E|-----------------|-----------------|-----------------|-----------------|


G|-----------------|-----------------|-----------------|-----------------|
D|-----------------|-----------------|-----------------|-----------------|
A|-----------------|-----------------|-----------------|-----------------|
E|-5-5-5-5-5-5-5-5-|-5-5-5-5-5-5-5-5-|-5-5-5-5-5-5-5-4-|-5-4-5-4-5-4-5-5-|


G|-----------------|-----------------|-----------------|-----------------|
D|-----------------|-----------------|-2-2-------------|-----------------|
A|-2-2-2-2-2-2-2-2-|-2-2-2-2-2-4-4-4-|-----4-2-2-2-2-2-|-2-2-2-2-2-4-4-4-|
E|-----------------|-----------------|-----------------|-----------------|


[Chorus] (x6)

G|-----------------|-----------------|-----------------|-4-4-4-----------|
D|-5-5-5-5-5-5-5-5-|-5-5-5-5-5-5-5-5-|-7-7-7-7-7-7-7-7-|-------7-7-7-----|
A|-----------------|-----------------|-----------------|-------------7-7-|
E|-----------------|-----------------|-----------------|-----------------|


G|-----------------|-----------------|-4-4-4-4-4-4-4-4-|-7-4---4-4-4-----|
D|-4-4-4-4-4-4-4---|-4-4-4-4-4-4-7-7-|-----------------|-----7-------7-7-|
A|---------------7-|-----------------|-----------------|-----------------|
E|-----------------|-----------------|-----------------|-----------------|


G|-----------------|-----------------|-----------------|-4-4-4-----------|
D|-5-5-5-5-5-5-5-5-|-5-5-5-5-5-5-5-5-|-7-7-7-7-7-7-7-7-|-------7-7-7-----|
A|-----------------|-----------------|-----------------|-------------7-7-|
E|-----------------|-----------------|-----------------|-----------------|


G|-----------------|-----------------|-----------------|-----------------|
D|-4-4-4-4-4-4-4---|-4-4-4-----------|-----------------|-----------------|
A|---------------7-|-------7-7-7-5-5-|-2-2-2-2-2-2-2-2-|-2-2-2-2-2-2-2-2-|
E|-----------------|-----------------|-----------------|-----------------|


[Outro]

G|-----------------|-----------------|-----------------|-4-4-4-----------|
D|-5-5-5-5-5-5-5-5-|-5-5-5-5-5-5-5-5-|-7-7-7-7-7-7-7-7-|-------7-7-7-----|
A|-----------------|-----------------|-----------------|-------------7-7-|
E|-----------------|-----------------|-----------------|-----------------|


G|-----------------|-----------------|-4-4-4-4-4-4-4-4-|-7-4---4-4-4----|
D|-4-4-4-4-4-4-4---|-4-4-4-4-4-4-7-7-|-----------------|-----7-------7--|
A|---------------7-|-----------------|-----------------|----------------|
E|-----------------|-----------------|-----------------|----------------|



************************

in regular sequence!

************************
Добавлено: 19.09.2017
Другие материалы по этой песне:

Страница создана 24.07.2012
http://primanota.ru/the-field-mice/sensitive-chords.htm
Привет, Гость.
Предлагаем пройти революционный курс по гитаре.
Подарок от PrimaNota.Ru, забирай!