PrimaNota.ru - самый крупный в мире бесплатный архив песенных текстов, аккордов, табулатур и нот


The Felice Brothers - Oliver Stone - аккорды и текст, видео

Регистрация Запомнить меня
Войти через:  Facebook Google Twitter Vk Yandex Mail.ru

The Felice Brothers - Oliver Stone - аккорды и текст, видео

Печатать
Просмотров: 110
Oliver Stone
The Felice Brothers
-------------------------------------------------------------------------------
                                                          Oliver Stone - The Felice Brothers
-------------------------------------------------------------------------------

Tabbed by: Yoshima

Tuning: Standard


Loads of chords in this song:

.....D.....F#m.....A......G.....Bm......E.....Gm.....F#....
e|---2------2------0------3------2------0------3------2---|
B|---3------2------2------3------3------0------3------2---|
G|---2------2------2------0------4------1------3------3---|
D|---0------4------2------0------4------2------5------4---|
A|---0------4------0------2------2------2------5------4---|
E|----------2------0------3------2------0------3------2---|



D........F#m..G.......A....
Oliver Stone, Oliver Stone,

D..........A........Bm......A....
You really love the movies,

G.........D.........G......F#m...
Oh what a night for dancing,

.........G.......A.....
With the one you love,



D........F#m..G......A...
Sunset Hill, Sunset Hill,

D........A..........Bm........A....
I really miss those parties,

G.........D.......G.....F#m...
Oh what a life we lived then,

................G.......A....
I guess that's come and gone,



....G.............A...
But somewhere in space, 

Bm............E.......A....
those parties still remain,

G.........F#m............F#......G....
I need to find how those ladders climb,

....Gm........................A...................
And catch a cab from there to witness your premiere,



--------------------------------------



D.............F#m..G...........A.....
From London's eye, down Venice Beach,

D..........A........Bm......A...
Around the rings of Saturn,

G.........D.........G.......F#m...
High over it(?), my blurred sail,

...........G..........A.....
To find my shimmering dream,


....G.............A...
But somewhere in space, 

Bm............E.......A....
there's a shimmering place,

G.........F#m............F#......G....
I need to find how those ladders climb,

....Gm........................A...................
And catch a cab from there to witness your premiere,


------------------------------


D...F#m...G...A...

D...A...Bm...A...

G...D...G...F#m......

G...A...


--------------------------------

KEY CHANGE

NOTE: The songs changes key half a step up so you can either stick a capo 
on 1st fret and continue with the above chord shapes or you can play the 
chords below...... or just ignore the key change altogether...


--------------------------------


.....Eb.....Gm....Ab.....Bb.....Cm......F......G.....Abm...
e|---6------3------4------1------3------1------3------4---|
B|---8------3------4------3------4------1------3------4---|
G|---8------3------5------3------5------2------4------4---|
D|---8------5------6------3------5------3------5------6---|
A|---6------5------6------1------3------3------5------6---|
E|---6------3------4------1------3------1------3------4---|


Eb.......Gm...Ab......Bb...
Oliver Stone, Oliver Stone,

Eb..........Bb........Cm......Bb
I feel your sets have vanished,

Ab......Eb...........Ab.....Gm...
Oh paradise you're a poltergeist,

.............Ab.....Bb...
A thing that no-one sees,


....Ab...........Bb
But somewhere in space,

Cm........F..........Bb...
There's a shimmering place, 

Ab........Gm............G.........Ab...
I'm still upset at that worthless tramp,

....Abm...............Bb.....................Eb....
For leaving me to die on that winter night,


END
Добавлено: 06.05.2012
Другие материалы по этой песне:
  • Аккорды и текст

Страница создана 06.05.2012
http://primanota.ru/the-felice-brothers/oliver-stone-chords.htm
Привет, Гость.
Предлагаем пройти революционный курс по гитаре.
Подарок от PrimaNota.Ru, забирай!