PrimaNota.ru - самый крупный в мире бесплатный архив песенных текстов, аккордов, табулатур и нот


The Fashion - Dreaming - бас-таба, видео

Регистрация Запомнить меня
Войти через:  Facebook Google Twitter Vk Yandex Mail.ru

The Fashion - Dreaming - бас-таба, видео

Печатать
Просмотров: 88
Tabbed by: bassm99
E-mail: alanmatthews1966@yahoo.co.uk

Tuning: E, A, D, G

"Dreaming" from the album "Twilight Of Idols" (1984)
Written by A.Darby

Bass Starts: 0:07

Intro: (Play 4 Times)

G|-------------------------------------------------------------------------------|
D|-------------------------------------------------------------------------------|
A|--5---3------------------------------------------------------------------------|
E|----5--------------------------------------------------------------------------|

Verse: (Play Twice)

G|-------------------------------------------------------------------------------|
D|-------------------------------------------------------------------------------|
A|--5---3-(x4)-10----8-(x2)-12-10-12-12--12-15-(x1)------------------------------|
E|----5-----------10-------------------------------------------------------------|

Chorus:

G|----------7--------------------------------------------------------------------|
D|--------------5---7------------------------------------------------------------|
A|--5-5-3-5-----------(x3)-------------5-----5-------3---------------------------|
E|------------3---5--------666666666---------------5-----------------------------|

Repeat Verse:

Repeat Chorus:

Guitar Solo:

G|-------------------------------------------------------------------------------|
D|-------------------------------------------------------------------------------|
A|--5---3-(x4)-10----8-(x2)-12-10-12-12--12-15-(x1)------------------------------|
E|----5-----------10-------------------------------------------------------------|

Repeat Chorus:

Ending: (Fades Out)

G|-------------------------------------------------------------------------------|
D|-------------------------------------------------------------------------------|
A|--5---3-(x16)-10----8-(x2)-12-10-12-12-(x1)------------------------------------|
E|----5------------10------------------------------------------------------------|

Добавлено: 27.05.2015
Вам также может быть интересно:
Другие материалы по этой песне:
  • Аккорды и текст

Страница создана 27.05.2015
http://primanota.ru/the-fashion/dreaming-chords.htm
Привет, Гость.
Предлагаем пройти революционный курс по гитаре.
Подарок от PrimaNota.Ru, забирай!