PrimaNota.ru - самый крупный в мире бесплатный архив песенных текстов, аккордов, табулатур и нот


The Fall Of Troy - What Sound Does A Mastadon Make - таба, бас-таба, видео

Регистрация Запомнить меня
Войти через:  Facebook Google Twitter Vk Yandex Mail.ru

The Fall Of Troy - What Sound Does A Mastadon Make - таба, бас-таба, видео

Печатать
Просмотров: 128
Sorry but figure out the strum pattern, this is only the intro part
   Q=180
  4/4
   Gtr I
||-------------------------------------|---------------------------------------|
||-------------------------------------|-15-15-15-15--15-15-15-15--15-15-15----|
||-12--12-12-12-12--12-12-12-12--12-12-|-11-11-11-11--11-11-11-11--11-11-11----|
||-14--14-14-14-14--14-14-14-14--14-14-|-12-12-12-12--12-12-12-12--12-12-12----|
||-------------------------------------|---------------------------------------|
||-------------------------------------|---------------------------------------|


|----------------------------15-15-15-15-15-15-15-15-14-14-14-14-14-14-14-14----|
|-13-13-13-13-13-13-13-13-13--x-------------------------------------------------|
|-11-11-11-11-11-11-11-11-11-12-12-12-12-12-12-12-12-12-12-12-12-12-12-12-12----|
|-12-12-12-12-12-12-12-12-12-10-10-10-10-10-10-10-10-10-10-10-10-10-10-10-10----|
|-------------------------------------------------------------------------------|
|-------------------------------------------------------------------------------|


|-------------------------|-------------------------|----------------------|
|-------------------------|-------15----------------|----------------15----|
|-11h12p11----11-11h12p11-|----11----11h12p11----11-|-11h12p11----11-------|
|----------14-------------|-14----------------14----|----------14----------|
|-------------------------|-------------------------|----------------------|
|-------------------------|-------------------------|----------------------|


  &
|-14-----------14-----------|-15-----------15--------------|
|----15p0-15p0----15p0-15p0-|----16p0-16p0----16p0-16p0----|
|---------------------------|------------------------------|
|---------------------------|------------------------------|
|---------------------------|------------------------------|
|---------------------------|------------------------------|


                                                 To Coda
|-15----------15----------15-15----------15----------17-----|
|----15h17p15----15h17p15-------15h17p15----15h17p15--------|
|-----------------------------------------------------------|
|-----------------------------------------------------------|
|-----------------------------------------------------------|
|-----------------------------------------------------------|


|---------------------------------|
|-----8h10p8-------13p12----------|
|-9-9--------7h9p7-------14S12----|
|---------------------------------|
|---------------------------------|
|---------------------------------|


|-------------------|
|-11--9-15-13-11----|
|-12-10-16-14-12----|
|-------------------|
|-------------------|
|-------------------|


|---------------------------------|
|-----8h10p8-------13p12----------|
|-9-9--------7h9p7-------14S12----|
|---------------------------------|
|---------------------------------|
|---------------------------------|


|--------------------------------|
|-12-12-11Sx--x-12-12-11Sx--x----|
|-14-14-12Sx--x-14-14-12Sx--x----|
|--------------------------------|
|--------------------------------|
|--------------------------------|



Добавлено: 10.06.2012
Другие материалы по этой песне:

Страница создана 05.05.2012
http://primanota.ru/the-fall-of-troy/what-sound-does-a-mastadon-make-chords.htm
Привет, Гость.
Предлагаем пройти революционный курс по гитаре.
Подарок от PrimaNota.Ru, забирай!