PrimaNota.ru - самый крупный в мире бесплатный архив песенных текстов, аккордов, табулатур и нот


The Fall Of Troy - Webs - таба, бас-таба, видео

Регистрация Запомнить меня
Войти через:  Facebook Google Twitter Vk Yandex Mail.ru

The Fall Of Troy - Webs - таба, бас-таба, видео

Печатать
Просмотров: 457
The Fall of Troy - In The Unlikely Event
Webs
Just the intro, might be a little off, but it should be just about right.

|---------------------||---------------------|
|---------------------||---------------------|
|---------------------||---------------------|
|----------2--4--2----||--------2-4-2--4/6-2-|
|-----2h4-------------||----2h4--------------|
|--0------------------||--0------------------|

|---------------------||---------------------|
|---------------------||---------------------|
|---------------------||--4------2p1---------|
|--2--------2---------||--2-----------2-4/6--|
|--4----------4-------||--4------------------|
|--0------------------||--0------------------|
Добавлено: 17.04.2012
Другие материалы по этой песне:
  • Аккорды и текст

Страница создана 02.03.2012
http://primanota.ru/the-fall-of-troy/webs-chords.htm
Привет, Гость.
Предлагаем пройти революционный курс по гитаре.
Подарок от PrimaNota.Ru, забирай!