PrimaNota.ru - самый крупный в мире бесплатный архив песенных текстов, аккордов, табулатур и нот


The Fall Of Troy - Quarter Past - текст песни, таба, видео

Регистрация Запомнить меня
Войти через:  Facebook Google Twitter Vk Yandex Mail.ru

The Fall Of Troy - Quarter Past - текст песни, таба, видео

Печатать
Просмотров: 115
this is the best i can do, ive worked on this for about a day
i know its not perfect but maybe it will give someone a good idea, and check out
my cut down all the trees and name the streets after them.please add to it.


e|----------------------------------------------------------------------------------------------|
b|----------------------------------------------------------------------------------------------|
g|-5------5---5----------------------5--------5---5-----------------5---------------------------|
d|-7------7---7----5h7-------5h7--7--------7---7---------5h7------5-------7-----5-----9---12----|
a|-0------0---0---------7------------0--------0---0--------------5------------5-----3-----7---10|
E|----------------------------------------------------------------------------------------------|


E|-----------------8---7---5---------------------------------------------|
B|----------8-------------------8---5-------7-------7h8--7---------------|
G|--5------5----------------------------5---7-------7-----7--------------|
D|--7------7---------------------------------7---------------------------|
A|--0------0---------------------------------5---------------------------|
E|-----------------------------------------------------------------------|
       Quarter past midnight….                 Sittin here …..

E|-----------------8---7---5---------------------------------------------|
B|----------8-------------------8---5-------7------6---------------------|
G|--5------5----------------------------5---7------7---------------------|
D|--7------7---------------------------------7------7--------------------|
A|--0------0---------------------------------5------5--------------------|
E|-----------------------------------------------------------------------|


E|-------------8----------------------8-------------------|
B|-----5-----------5--------5-------------5---------------|
G|---------5---------------------5------------------------|
D|--7-------------------7---------------------------------|
A|--------------------------------------------------------|
E|--------------------------------------------------------|
    Now theres a question

E|-------------7----------------------7-------------------|
B|-----5-----------5--------5-------------5---------------|
G|---------5---------------------5------------------------|
D|--6-------------------6---------------------------------|
A|--------------------------------------------------------|
E|--------------------------------------------------------|


E|-------------8----------------------8-------------------|
B|-----5-----------5--------5-------------5---------------|
G|---------5---------------------5------------------------|
D|--5-------------------5---------------------------------|
A|--------------------------------------------------------|
E|--------------------------------------------------------|

E|--------------0--------------------------0-----------|
B|---------6--------6-----------------6-------6--------|
G|-----------------------------------------------------|
D|-----7------------------------7----------------------|
A|--5----------------------5---------------------------|
E|-----------------------------------------------------|


E|-------------8----------------------8-------------------|
B|-----5-----------5--------5-------------5---------------|
G|---------5---------------------5------------------------|
D|--7-------------------7---------------------------------|
A|--------------------------------------------------------|
E|--------------------------------------------------------|


E|-------------1----------------------0-------------------|
B|-----1-----------1--------0-------------0---------------|
G|---------2---------------------1------------------------|
D|--3-------------------2---------------------------------|
A|--------------------------------------------------------|
E|--------------------------------------------------------|

E|---------------------------------------------|
B|--5-----6------8-----10----------------------|
G|---------------------------------------------|
D|--7-----7------5-----7-----------------------|    pick really fast
A|--0-----0------------------------------------|
E|---------------------------------------------|

E|------------------------------------------------------------------------------------|
B|--3h5p3----------------------------------5h6p5--------------------------------------|
G|----------5---5--5----4h5p4---------------------7---7--7----------------------------|
D|--------------------------------5--5----------------------------5h7p5---------------|
A|--------------------------------------------------------------------------7---7-----|
E|------------------------------------------------------------------------------------|
                                                          … How you taught me

e|----------------8---------------------------------------|
b|---8-----5----------5-------8-----5-----3---------------|
g|--------------------------------------------------------|
d|--------------------------------------------------------|
a|--------------------------------------------------------|
e|--------------------------------------------------------|


E|------------------------------------------------------------------------------------|
B|--3h5p3----------------------------------5h6p5--------------------------------------|
G|----------5---5--5----4h5p4---------------------7---7--7----------------------------|
D|--------------------------------5--5----------------------------5h7p5---------------|
A|--------------------------------------------------------------------------7---7-----|
E|------------------------------------------------------------------------------------|

e|----------------8-------------------------1-------------|
b|---8-----5----------5-------8-----5-----3---------------|
g|-------------------------------------------2------------|
d|--------------------------------------------------------|
a|--------------------------------------------------------|
e|--------------------------------------------------------|


e|---------------------------------------------|
b|---------------------------------------------|
g|---------------------------------------------|
d|----------5-5-5------------------------------|
a|--3-3-3--3-3-3-5-5-5--7-7-7---5/7------------|
e|--1-1-1----------3-3-3--5-5-5—3/5------------|
     heres a few things that I might say
e|---------------------------------------------|
b|---------------------------------------------|
g|---------------------------------------------|
d|----------5-5-5------------------------------|
a|--3-3-3--3-3-3-5-5-5-5-5-5-5-2---------------|
e|--1-1-1----------3-3-3-3-3-3-3-0-------------|

e|-----------------------------------------------8-----------------------------|
b|----------------------------------------------------8------------------------|
g|----10-----10-----10-----9------9-----9---------------7h9p7p0----------------|
d|-----------------------------------------------------------------------------|
a|--8------8------8------7------7------7---------------------------------------|
e|-----------------------------------------------------------------------------|
        you make me feel like I can fly…..

e|-----------------------------------------------3-----------------------------|
b|----------------------------------------------------3------------------------|
g|-----5------5------5-------4------4-----4---------------2h4p2p0--------------|
d|-----------------------------------------------------------------------------|
a|--3------3------3------2------2------2---------------------------------------|
e|-----------------------------------------------------------------------------|


e|-----------------------------------------------8-------------|
b|---------------------------------------------------8---------|
g|----10-----10-----10-----9------9-----9-------------7h9p7p0--|
d|-------------------------------------------------------------|
a|--8------8------8------7------7------7-----------------------|
e|-------------------------------------------------------------|

e|------------------------------------------------------------------|
b|------------------------------------------------------------------|
g|---9---9---9------12/14p0---------------5--4h5p4p0----------------|
d|--10--10--10------------------------------------------------------|
a|----------------------------------7--7--7-------------------------|
e|----------------------------------5--5--5-------------------------|


e|-----------------------------------------------8-------------------------------------------|
b|---------------------------------------------------8---------------------------------------|
g|----10-----10-----10-----9------9-----9-------------7h9p7p0--------------------------------|
d|-------------------------------------------------------------------------------------------|
a|--8------8------8------7------7------7---------------------------------5---5--x-x----3-----|
e|--------------------------------------------------------------------------3---3--x-x----1--|

e|------------------------------------------------------|
b|------------------------------------------------------|
g|---12------12--12----12---12----12------12--------10--|
d|---14b----14--14----14----14----14-----14bp12---12----|
a|------------------------------------------------------|
e|------------------------------------------------------|

=
e|------------------------------------------------------------------------------------------|
b|-----------20--------20-------------------------------------------------------------------|
g|---9br9--------21---------17----19---16---------14gradual bend while picking really fast--|
d|------------------------------------------------------------------------------------------|
a|------------------------------------------------------------------------------------------|
e|------------------------------------------------------------------------------------------|

e|------------------------------------------------17-----------------------|
b|-------------------------------------------------------------------------|
g|---17------19---------16br16-----12-----------------      pick 17 and 19-| really fast
d|-------------------------------------------------------------------------|
a|-------------------------------------------------------------------------|
e|-------------------------------------------------------------------------|


e|------------------------------7*-------------------------------------------------7*--|
b|-----------7*----------------7*-------------------7*--------------------7*----7*-----|
g|-----------7*--------------------------------------7*-------------7*----7*-----------|
d|-------------------------------------------------------------7*----7*----------------|
a|---7---7-----------7---7--------------3---3---------------7*-------------------------|
e|---5---5-----------5---5--------------1---1------------------------------------------|

e|------------8p0----3p0----5p0------------------------------5p0---3p0---8p0----12p0---10p0--|
b|------------------------------------3h5p3p0------------------------------------------------|
g|-------------------------------------------------------------------------------------------|
d|-------------------------------------------------------------------------------------------|
a|--7---7----------------------------------------------7---7---------------------------------|
e|--5---5----------------------------------------------5---5---------------------------------|

e|------------------------------------------------------------------------------|
b|------------------------------------------------------------------------------|
g|------------------------------------------------------------------------------|
d|------------4---4------5---5-------9-9-9-9-----9-9-9-9------------------------|
a|--3--3-----2---2------3---3-------7-7-7-7-----7-7-7-7-------------------------|
e|--1--1------------------------------------------------------------------------|

e|----------------------------------------------1------------0----0--3-----3—3/5--|
b|-------------------------------------------1-----------1-----1--------1---------|
g|----------------------------------------1--------------2------------------------|
d|------------4--4-----2-------------3------------------2-------------------------|
a|--3--3-----2--2-----0-------3------------------------0--------------------------|
e|--1--1------------------------1-------------------------------------------------|
Добавлено: 24.06.2012
Другие материалы по этой песне:

Страница создана 22.02.2012
http://primanota.ru/the-fall-of-troy/quarter-past-chords.htm
Привет, Гость.
Предлагаем пройти революционный курс по гитаре.
Подарок от PrimaNota.Ru, забирай!