PrimaNota.ru - самый крупный в мире бесплатный архив песенных текстов, аккордов, табулатур и нот


The Fall Of Troy - Oh The Casino - текст песни, таба, бас-таба, видео

Регистрация Запомнить меня
Войти через:  Facebook Google Twitter Vk Yandex Mail.ru

The Fall Of Troy - Oh The Casino - текст песни, таба, бас-таба, видео

Печатать
Просмотров: 173
i noticed there wasn't a tab up for this song so i decided to do it myself...it's pretty 
cosidering the usual difficulty in the fall of troy songs.

tabbed by:spencer heath
tuning:Drop D

Intro/Chorus
e:----0-------0-------0----------------0-------0-------0-------------|
B:----1-3-----1-3-----1-3------3-1-----1-3-----1-3-----1-3------1-3--|
G:2222--3-2222--3-2222--3-3333-3-2-2222--3-2222--3-2222--3-3333-2-3--|
D:3333----3333----3333----5555-----3333----3333----3333----5555------|
A:-------------------------------------------------------------------|
D:----------------------------------------------------------------x2-|

Verse
e:-----------------------------------------------------------|
B:-----------------------------------------------------------|
G:-------555555-777777---------------------------------------|
D:333333-555555-777777-888888-333333-111111-0000-57888875----|
A:333333-333333-555555-888888-333333-111111-0000-57888875----|
D:333333---------------888888-333333-111111-0000-57888875-x2-|

2nd time through lead plays this...
e:----------------------------------------------------------------|
B:-2--2---8---8----10----10---6--6--2--2---4--4--3----------------|
G:--1--1---9---9-----10----10--7--7--1--1------------7-9-1010109-7|
D:3--3--10--10---12----12----8--8--3--3-----8--8--7--5-7-8-8-8-7-5|
A:----------------------------------------6--6--5--5--------------|
D:----------------------------------------------------------------|

Chorus x4

repeat verse (pm)

just to hear your voice speak...
e:--------------------------------------------------|
B:--------------------------------------------------|
G:--------------------------------------------------|
D:5-7-8-5-7-8-5-7-8-5-7-8-3-5-7-3-5-7-3-5-7-3-5-7---|
A:5-7-8-5-7-8-5-7-8-5-7-8-3-5-7-3-5-7-3-5-7-3-5-7---|
D:5-7-8-5-7-8-5-7-8-5-7-8-3-5-7-3-5-7-3-5-7-3-5-7-x2|

e:------------------------------------------------|
B:------------------------------------------------|
G:7-910-7-910-7-910-7-910-5-7-9-5-7-9-9-8-5-7-5-4-|
D:x-x-x-x-x-x-x-x-x-x-x-x-x-x-x-x-x-x-x-x-x-x-x-x-|
A:5-7-8-5-7-8-5-7-8-5-7-8-3-5-7-3-5-7-7-6-3-5-3-2-|
D:------------------------------------------------|

e:----------------------------------------------------------------^^^--|
B:--------------------------------------------------------------(b b b)|
G:121212121212-141414141414-151515151515-212121212121-1717171717171717-|
D:xxxxxxxxxxxx-xxxxxxxxxxxx-xxxxxxxxxxxx-xxxxxxxxxxxx-xxxxxxxxxxxxxxx--|
A:101010101010-121212121212-131313131313-191919191919-1515151515151515-|
D:---------------------------------------------------------------------|

Chorus x4

end with
e:-----------|
B:-----1-3-1~|
G:3333-2-3-2~|
D:5555-------|
A:-----------|
D:-----------|
Добавлено: 13.03.2012
Другие материалы по этой песне:

Страница создана 13.03.2012
http://primanota.ru/the-fall-of-troy/oh-the-casino-chords.htm
Привет, Гость.
Предлагаем пройти революционный курс по гитаре.
Подарок от PrimaNota.Ru, забирай!