PrimaNota.ru - самый крупный в мире бесплатный архив песенных текстов, аккордов, табулатур и нот


The Fall Of Troy - Mirrors Are More Fun Than Television - текст песни, таба, бас-таба, видео

Регистрация Запомнить меня
Войти через:  Facebook Google Twitter Vk Yandex Mail.ru

The Fall Of Troy - Mirrors Are More Fun Than Television - текст песни, таба, бас-таба, видео

Печатать
Просмотров: 101
MIRRORS ARE MORE FUN THAN TELEVISION: (LEAD GUITAR ONLY!!!) 
The Thirty Years War

Tabbed by: Muhlaire92

This is my first tab, and it is strictly by ear. I couldn't find a tab for this 
awesome song, so I wrote one myself!

GUITAR I:

 INTRO (play 7 times)
e|--------------------------------------------------------------------|
B|-----------7-8-------------7-8------------4-5---------------4-5-----|
G|-----7--------------7--------------4-----------------4--------------|
D|--------5--------------5--------------2-----------------2-----------|
A|---7---7-7--------7---7-7--------4---4-4-----------4---4-4----------|
E|--------------------------------------------------------------------|


 CHORUS 1 (play 4 times)
e|-------2-0---2-0---2-0---4-0--| |-------2-0---2-0----2---------|
B|---0-2-----0-----0-----0------| |---0-2-----0--------0---------| play
G|------------------------------| |------------------------------| this
D|------------------------------| |------------------------------| 4th
A|------------------------------| |------------------------------| time
E|------------------------------| |------------------------------| 


 REPEAT INTRO (play 7 times)
e|--------------------------------------------------------------------|
B|-----------7-8-------------7-8------------4-5---------------4-5-----|
G|-----7--------------7--------------4-----------------4--------------|
D|--------5--------------5--------------2-----------------2-----------|
A|---7---7-7--------7---7-7--------4---4-4-----------4---4-4----------|
E|--------------------------------------------------------------------|


 CHORUS 2 (play 4 times)
e|-------2-0---2-0---2-0---4-0--| |-------2-0---2-0---2-0--2-----|
B|---0-2-----0-----0-----0------| |---0-2-----0-----0------0-----| play
G|------------------------------| |------------------------------| this
D|------------------------------| |------------------------------| 4th
A|------------------------------| |------------------------------| time
E|------------------------------| |------------------------------| 


“Tonight Is The Night...” (Vary the Last Notes at Faster Pace 3rd Time)
e|---x-x---x-x----x-x---x-x----2-0-0-4-0-0-2-0-2-0-0-4-0-0-2-0--|
B|---9-9---9-9----4-4---4-4-------------------------------------|
G|---9-9---9-9----4-4---4-4-------------------------------------|
D|---7-7---7-7----2-2---2-2-------------------------------------|
A|---9-9---9-9----2-2---2-2-------------------------------------|
E|---9-9---9-9----2-2---2-2-------------------------------------|x4


 BRIDGE
e|---12-9---------------------|
B|--------12-9---10-9---------|
G|-------------9------9-11-9--|
D|----------------------------|
A|----------------------------|
E|----------------------------|x12 (after 7th time, distortion on)



e|---12-9-----12-9-----12-9-----12-9-----12-9-9-12s14-14-12-12-14-12-12-14-12-16b|
B|--------12-------12-------12-------12------------------------------------------|
G|-------------------------------------------------------------------------------|
D|-------------------------------------------------------------------------------|
A|-------------------------------------------------------------------------------|
E|-------------------------------------------------------------------------------|


 PALM MUTED CHORDS (Play Each Chord 16 Times)
e|----------------------------------------|   |-12-9-----| 
B|----------------------------------------|   |------9---|
G|---9------------------------------------|   |--------9-|
D|---9----------9----------7----------2---|   |----------|
A|---7----------9----------7----------2---|   |----------| 
E|---9----------7----------5----------0---|x6 |----------| (after 6th)

“BACK AND FORWARD” (Same as Palm Mutes, But Open)
e|------------------------------------------------------|
B|------------------------------------------------------|
G|---9--------------------------------------------------|
D|---9----------9----------7----------2-2---2-2---2-2---|
A|---7----------9----------7----------2-2---2-2---2-2---|
E|---9----------7----------5----------0-0---0-0---0-0---|

e|-----------------------------------------------------------------|
B|-----------------------------------------------------------------|
G|---9-------------------------------------------------------------|
D|---9----------9----------7----------2-2---2-2---2-2---2-2---2~---|
A|---7----------9----------7----------2-2---2-2---2-2---2-2---2~---|
E|---9----------7----------5----------0-0---0-0---0-0---0-0---0~---|


And now, I can't quite get the soft notes at the very end, but this is about 98% of the song.

Thanks for checking this out, and watch for bass and second guitar!!!
Contact to comment: muhlaire92@cox.net







Добавлено: 25.02.2012
Другие материалы по этой песне:

Страница создана 25.02.2012
http://primanota.ru/the-fall-of-troy/mirrors-are-more-fun-than-television-chords.htm
Привет, Гость.
Предлагаем пройти революционный курс по гитаре.
Подарок от PrimaNota.Ru, забирай!