PrimaNota.ru - самый крупный в мире бесплатный архив песенных текстов, аккордов, табулатур и нот


The Fall Of Troy - Ghostship Part 1 - таба, бас-таба, видео

Регистрация Запомнить меня
Войти через:  Facebook Google Twitter Vk Yandex Mail.ru

The Fall Of Troy - Ghostship Part 1 - таба, бас-таба, видео

Печатать
Просмотров: 158
Уроки эстрадного вокала в Санкт-Петербурге
Intro

This is the part it plays in the first part, as the bass is going:
e|-15-10h12---10-12-12h13-12-10-12-------------------------------------------|
B|------------------------------- -10---10-10h12-10-8-10---------------------|
G|-------------------------------------------------------9---9-9h10-9-7-9/2--|
D|---------------------------------------------------------------------------|
A|---------------------------------------------------------------------------|
E|---------------------------------------------------------------------------|

e|-------------------------------------------------------|
B|-------------------------------------------------------|
G|-9-9-9-9-9-9-7-7-7-7-7-7-10-10-10-10-10-10-9-9-9-9-9-9-|
D|-------------------------------------------------------|
A|-------------------------------------------------------|
E|-------------------------------------------------------|

e|-12-12-12-12-12-12-10-10-10-10-10-10-13--13--13-13--15--15--15--15--15--15--|
B|-x--x--x--x--x--x--x--x--x--x--x--x--x---x----x--x---x---x---x---x---x---x--|
G|-9--9--9--9--9--9--7--7--7--7--7--7--10--10--10--10--12--12--12--12--12--12-|
D|----------------------------------------------------------------------------|
A|----------------------------------------------------------------------------|
E|----------------------------------------------------------------------------|

This part, he just hand mutes all the strings and strokes with the pick, then Thomas 
this part in synchronization with the drums...

e|---------------------------------------------------------------------------|
B|---------------------------------------------------------------------------|
G|-5----5----5-5-5-----------------------------------------------------------|
D|-7----7----7-7-7-----------------------------------------------------------|
A|-0----0----0-0-0-----------------------------------------------------------|
E|---------------4-----------------------------------------------------------|

Then he does some fill / solo thingy, and goes into the Chorus:

e|---------------------------------------------------------------------------|
B|---------------------------------------------------------------------------|
G|-----9-----14--------------------------------------------------------------|
D|-7-7-x-7-7--x-7-7-7--------------------------------------------------------|
A|-0-0-7-6-6-12-0-0-0-x-x-x-x-x-x-x-x----------------------------------------|
E|--------------------x-x-x-x-x-x-x-x----------------------------------------|

e|---------------------15-12-15----------------------------------------------|
B|------------------------------13-10-9-10-12-13-----------------------------|
G|-----9-----14--------------------------------------------------------------|
D|-7-7-x-7-7--x-7-7-7--------------------------------------------------------|
A|-0-0-7-6-6-12-0-0-0--------------------------------------------------------|
E|---------------------------------------------------------------------------|

After that, Andrew does a fill on the drums, and Thomas goes into the Verse, which is 
last thing I have figured out so far.

e|------17p0---15p0--13p0--12p0--10p0------13p0---12p0--10p0------------------|
B|-----------------------------------------------------------12h13p0-12h15p12-|
G|-14-14----14-----14-----14----14----13-13-----13----13----------------------|
D|----------------------------------------------------------------------------|
A|----------------------------------------------------------------------------|
E|----------------------------------------------------------------------------|

And that's all I have so far.
Добавлено: 08.05.2012
Другие материалы по этой песне:

Страница создана 06.04.2012
http://primanota.ru/the-fall-of-troy/ghostship-part-1-chords.htm
Привет, Гость.
Предлагаем пройти революционный курс по гитаре.
Подарок от PrimaNota.Ru, забирай!