PrimaNota.ru - самый крупный в мире бесплатный архив песенных текстов, аккордов, табулатур и нот


The Fabulous Thunderbirds - Wrap It Up - аккорды и текст, таба, видео

Регистрация Запомнить меня
Войти через:  Facebook Google Twitter Vk Yandex Mail.ru

The Fabulous Thunderbirds - Wrap It Up - аккорды и текст, таба, видео

Печатать
Просмотров: 208
Wrap It Up
The Fabulous Thunderbirds
Wrap it up - The Fabulous Thunderbirds

Intro / signature guitar / keyboard riff:

e|--------6-6--------------------------|
B|--------6-6-6------------------------|
G|-----6--------8p6-----6-6b8-8-8-6-8--|
D|-/8---------------8-8----------------|
A|-------------------------------------|
E|-------------------------------------|

   Bb   Ab   Db   Eb      x2

[Verse 1]

e|----------------------------|
B|------6-----------6---------|
G|------6-----------6--------:|
D|-8----6----6-7-8--6----6-7--|   (once each line of verse)
A|-8---------6-7-8-------6-7--|
E|-6---------4-5-6-------4-5--|

Bbm7
I've been watchin' you for days now baby
I just love your sexy ways now baby
You know our love will never stop now baby
Just put your lovin' in my box now baby

[Chorus - use intro riff]

Bb                Ab              Db         Eb
Wrap it up, I'll take it. Wrap it up, I'll take it.  Well..

[Verse 2]

Bbm7
Well, no more will I shop around now baby
I know I got the best thing in town now baby
I've seen all I want to see now baby
Bring your lovin' straight to me now baby

[Chorus x2]

[guitar solo over Bb]

[Bridge]

A|-5-5-4-4-3-3-4-4-|
E|-3-3-2-2-1-1-2-2-|

        Gm   F#    F     F#  Gm  F#   F    F# 
Well....I'm gonna treat you like the queen you are
Bring you sweet things from my candy jar
You've got tricks you ain't never used
                                    F7
Give it, give it to me, it won't be abused. 

[Verse 1]
[Chorus x4] with bass solo on 3rd chorus
Добавлено: 11.12.2015
Другие материалы по этой песне:
  • Аккорды и текст

Страница создана 06.05.2012
http://primanota.ru/the-fabulous-thunderbirds/wrap-it-up-chords.htm
Привет, Гость.
Предлагаем пройти революционный курс по гитаре.
Подарок от PrimaNota.Ru, забирай!