PrimaNota.ru - самый крупный в мире бесплатный архив песенных текстов, аккордов, табулатур и нот


The Fabulous Thunderbirds - Why Get Up - бас-таба, видео

Регистрация Запомнить меня
Войти через:  Facebook Google Twitter Vk Yandex Mail.ru

The Fabulous Thunderbirds - Why Get Up - бас-таба, видео

Печатать
Просмотров: 66
Авторы музыки: Bill Carter
Авторы текста: Ruth Ellsworth
Fabulous Thunderbirds
Why get up 

Bass Tabs


Bassist(s): 
- Randy Bermudes (2007- ...)
- Preston Hubbard (1985-1992)
- Keith Ferguson (1976-1985)


Tuning : EADG
Tempo: 126 bpm 

Key signature: A Sharp


Chorus1: 00:01
G|------------|------------||------------|------------|-
D|---------5g-|---------8g-||---------5g-|---------8g-|-
A|---5-5-8----|---5-5-8----||---5-5-8----|---5-5-8----|- 
E|-6----------|-6----------||-6----------|-6----------|-
Why get up, why get up
G|---------5g-|---------8g-||------------|------------|-
D|---5-5-8----|---5-5-8----||---------5g-|---------8g-|-
A|-6----------|-6----------||---5-5-8----|---5-5-8----|- 
E|------------|------------||-6----------|-6----------|-
How can I get up, why should I get up
G|---------10g|---------8g-||------------|------------|-
D|---7-7-10---|---5-5-8----||------------|------------|-
A|-8----------|-6----------||------------|------------|- 
E|------------|------------||-6.---------|-666--------|-
This whole world's gone crazy

Think I've seen enough
I'm gonna sleep forever why get up


Verse1: 00:24
G|------------|------------||-------------------------|-
D|---------5g-|---------8g-||---------55--88-6--5-----|-
A|---5-5-8----|---5-5-8----||---5-5-8--------------8--|- 
E|-6----------|-6----------||-6-----------------------|-
Phone keeps ringing right off the hook
Some bill collector, I know what cooks
G|---------5g-|---------8g-||-------------------------|-
D|---5-5-8----|---5-5-8----||---------55--8--5--8-----|-
A|-6----------|-6----------||---5-5-8--------------5--|- 
E|------------|------------||-6-----------------------|-
Think I'll stay in bed, dream all day
World outside bugs me anyway
G|---------10g|---------8g-||------------|------------|-
D|---7-7-10---|---5-5-8----||---------5g-|---------5g-|-
A|-8----------|-6----------||---5-5-8----|---5-5-8----|- 
E|------------|------------||-6----------|-6----------|-
When I get things going, the going gets rough
So I ask myself why get up


Chorus2: 00:47
G|------------|------------||------------|------------|-
D|---------5g-|---------8g-||---------5g-|---------8g-|-
A|---5-5-8----|---5-5-8----||---5-5-8----|---5-5-8----|- 
E|-6----------|-6----------||-6----------|-6----------|-
Why get up, why get up
G|---------5g-|---------8g-||------------|------------|-
D|---5-5-8----|---5-5-8----||---------5g-|---------8g-|-
A|-6----------|-6----------||---5-5-8----|---5-5-8----|- 
E|------------|------------||-6----------|-6----------|-
How can I get up, why should I get up
G|---------10g|---------8g-||------------|------------|-
D|---7-7-10---|---5-5-8----||------------|------------|-
A|-8----------|-6----------||------------|------------|- 
E|------------|------------||-6.---------|-666----666-|-
This whole world's gone crazy

Think I've seen enough
I'm gonna sleep forever why get up


Verse2: 01:10
G|------------|------------||-------------------------|-
D|---------5g-|---------8g-||---------55--88-6--5-----|-
A|---5-5-8----|---5-5-8----||---5-5-8--------------8--|- 
E|-6----------|-6----------||-6-----------------------|-
Went to the doctor, he said lose some weight
If you don't do it quick, we'll have to operate
G|---------5g-|---------8g-||-------------------------|-
D|---5-5-8----|---5-5-8----||---------55--8--5--8-----|-
A|-6----------|-6----------||---5-5-8--------------5--|- 
E|------------|------------||-6-----------------------|-
I talked to my lawyer, he said case is closed
That woman got it all even the garden hose
G|---------10g|---------8g-||------------|------------|-
D|---7-7-10---|---5-5-8----||---------5g-|---------5g-|-
A|-8----------|-6----------||---5-5-8----|---5-5-8----|- 
E|------------|------------||-6----------|-6----------|-
Staring at the ceiling thinking just my luck
Better roll back over why get up



Chorus2: 01:32
G|------------|------------||------------|------------|-
D|---------5g-|---------8g-||---------5g-|---------8g-|-
A|---5-5-8----|---5-5-8----||---5-5-8----|---5-5-8----|- 
E|-6----------|-6----------||-6----------|-6----------|-
Why get up, why get up
G|---------5g-|---------8g-||------------|------------|-
D|---5-5-8----|---5-5-8----||---------5g-|---------8g-|-
A|-6----------|-6----------||---5-5-8----|---5-5-8----|- 
E|------------|------------||-6----------|-6----------|-
How can I get up, why should I get up
G|---------10g|---------8g-||------------|------------|-
D|---7-7-10---|---5-5-8----||------------|------------|-
A|-8----------|-6----------||------------|------------|- 
E|------------|------------||-6.---------|-666----666-|-
This whole world's gone crazy

Think I've seen enough
I'm gonna sleep forever why get up


Instrumental: 01:56 (Play X2)
G|------------|------------||-------------------------|-
D|---------5g-|---------8g-||---------55--88-6--5-----|-
A|---5-5-8----|---5-5-8----||---5-5-8--------------8--|- 
E|-6----------|-6----------||-6-----------------------|-

G|---------5g-|---------8g-||-------------------------|-
D|---5-5-8----|---5-5-8----||---------55--88----------|-
A|-6----------|-6----------||---5-5-8--------5--6--7--|- 
E|------------|------------||-6-----------------------|-

G|---------10g|---------8g-||-------------------------|-
D|---7-7-10---|---5-5-8----||---------55--88-6--5-----|-
A|-8----------|-6----------||---5-5-8--------------8--|- 
E|------------|------------||-6-----------------------|-

Verse3: 02:41
G|------------|------------||-------------------------|-
D|---------5g-|---------8g-||---------55--88-6--5-----|-
A|---5-5-8----|---5-5-8----||---5-5-8--------------8--|- 
E|-6----------|-6----------||-6-----------------------|-
Well I can't quit drinking, I'm nervous all the time
When I wake up, it's like a ton lead on my mind
G|---------5g-|---------8g-||-------------------------|-
D|---5-5-8----|---5-5-8----||---------55--8--5--8-----|-
A|-6----------|-6----------||---5-5-8--------------5--|- 
E|------------|------------||-6-----------------------|-
What was it, I said to that girl last night
She really got upset, I best stay out of sight
G|---------10g|---------8g-||------------|------------|-
D|---7-7-10---|---5-5-8----||---------5g-|---------5g-|-
A|-8----------|-6----------||---5-5-8----|---5-5-8----|- 
E|------------|------------||-6----------|-6----------|-
I remember a gun and calling somebody's bluff
I better duck under the cover why get up


Chorus3: 03:03
G|------------|------------||------------|------------|-
D|---------5g-|---------8g-||---------5g-|---------8g-|-
A|---5-5-8----|---5-5-8----||---5-5-8----|---5-5-8----|- 
E|-6----------|-6----------||-6----------|-6----------|-
Why get up, why get up
G|---------5g-|---------8g-||------------|------------|-
D|---5-5-8----|---5-5-8----||---------5g-|---------8g-|-
A|-6----------|-6----------||---5-5-8----|---5-5-8----|- 
E|------------|------------||-6----------|-6----------|-
How can I get up, why should I get up
G|---------10g|---------8g-||------------|------------|-
D|---7-7-10---|---5-5-8----||------------|------------|-
A|-8----------|-6----------||------------|------------|- 
E|------------|------------||-6.---------|-666----666-|-
This whole world's gone crazy

Think I've seen enough
I'm gonna sleep forever why get up


Chorus4 / Outro: 03:26
G|------------|------------||------------|------------|-
D|---------5g-|---------8g-||---------5g-|---------8g-|-
A|---5-5-8----|---5-5-8----||---5-5-8----|---5-5-8----|- 
E|-6----------|-6----------||-6----------|-6----------|-
Why get up, why get up
G|---------5g-|---------8g-||------------|------------|-
D|---5-5-8----|---5-5-8----||---------5g-|---------8g-|-
A|-6----------|-6----------||---5-5-8----|---5-5-8----|- 
E|------------|------------||-6----------|-6----------|-
How can I get up, why should I get up
G|---------10g|---------8g-||------------|------------|-
D|---7-7-10---|---5-5-8----||------------|------------|-
A|-8----------|-6----------||------------|------------|- 
E|------------|------------||-6.---------|-666.-------|-
This whole world's gone crazy

Think I've seen enough
I'm gonna sleep forever why get up


End: 03:49



Tablature Legend ----------------  
| S  slap 
| P  pop 
| x  mute note 
| /  slide up 
| \  slide down 
| h  hammer-on 
| p  pull-off 
| g  grace note 
| ~  vibrato 
| ^  brush up



A+ scale
G|------------------||------------------|-
D|-------5-8-5------||-------5-8-5------|-
A|---5-8-------8-5--||---5-8-------8-5--|- 
E|-6----------------||-6----------------|-

G|-------5-8-5------||-------5-8-5------|-
D|---5-8-------8-5--||---5-8-------8-5--|- 
A|-6----------------||-6----------------|-
E|------------------||------------------|-

G|------------------||------------------|-
D|-------5-8-5------||-------5-8-5------|-
A|---5-8-------8-5--||---5-8-------8-5--|- 
E|-6----------------||-6----------------|-

G|-------7-10-7-----||-------7-10-7-----|-
D|---7-10------10-7-||---7-10------10-7-|-
A|-8----------------||-8----------------|- 
E|------------------||------------------|-

G|-------5-8-5------||-------5-8-5------|-
D|---5-8-------8-5--||---5-8-------8-5--|- 
A|-6----------------||-6----------------|-
E|------------------||------------------|-

G|------------------||------------------|-
D|-------5-8-5------||-------5-8-5------|-
A|---5-8-------8-5--||---5-8-------8-5--|- 
E|-6----------------||-6----------------|-

Добавлено: 11.12.2015
Вам также может быть интересно:
Другие материалы по этой песне:
  • Аккорды и текст

Страница создана 11.12.2015
http://primanota.ru/the-fabulous-thunderbirds/why-get-up-chords.htm
Привет, Гость.
Предлагаем пройти революционный курс по гитаре.
Подарок от PrimaNota.Ru, забирай!